Sting - Its Probably Me tab version 3

                   It's probably me tab - Sting & Eric Clapton

 Intro :

/------------------------------------|/---------------------------10/12-10-|/--5-55-XXX-3 times--5-5-5/7---------|/--5-55-XXX----------5-5-5/7---------|/-3--33-XXX---------3--3-3/5---------|/------------------------------------|
Verse & chorus :
/------------------------------------------------------|/-----0-8-7------0-10-8------0-7h8h7-5------0-10/12-10-|/-9-99-------9-99--------9-99-----------9-99-----------|/-9-99-------9-99--------9-99-----------9-99-----------|/-7-77-------7-77--------7-77-----------7-77-----------|/0--00------0--00-------0--00----------0--00-----------|
/---------------8/10-8h10-7----------------------------|/-------8-7-----------------------------0-10/12-10-----|/--5-55------7-77-------------9-99--9-99---------------|/--5-55------7-77-------------9-99--9-99---------------|/--7-77------5-55-------------7-77--7-77---------------|/-5--55-----7--77------------0--00-0--00---------------|
/------------------------------------------------------|/-----8h10h8-7------0-10-8------7h8h7-5-5--------------|/-5-55----------7-77--------9-99--------6-Let ring-----|/-5-55----------7-77--------9-99--------5--------------|/-7-77----------5-55--------7-77--------7--------------|/5--55---------7-----------0--00-----------------------|
/------------------------------------------------------|/-0-10/12-10-------------------0-8-5-------------------|/--------------------8/9-8-7-77-------9-99-7-----------|/-------------12-1212------7-77-------9-99--5/7h5------|/-------------10-1010-----------------7-77-------7-----|/------------8---8-8------7--77------0--00-------------|
/------------------------------------------------------|/------10/12-10------8-7------0-10-8------0-7h8h7-5----|/--9-99----------9-99-----9-99--------9-99-------------|/--9-99----------9-99-----9-99--------9-99-------------|/--7-77----------7-77-----7-77--------7-77-------------|/-0--00---------0--00----0--00-------0--00-------------|
/---------------------------8/10-8h10-7----------------|/------0-10/12-10--------------------------------------|/--9-99------------5-55--7-77------------9-99----------|/--9-99------------5-55--7-77------------9-99----------|/--7-77------------7-77--5-55------------7-77----------|/-0--00-----------5--55-7---------------0--00-5h7------|
/-------------------------------------------------------------------------|/------0-10/12-10------8h10h8-7--------0-10-8--8---7h8h7-5-5---0-10/12-10-|/--9-99------------5-55------------7-77--------9-99--------6--------------|/--9-99------------5-55------------7-77--------9-99--------5--------------|/--7-77------------7-77------------5-55--------7-77--------7--------------|/-0--00-----------5--55-----------7--77-------0--00-----------------------|
/------------------------------------------------------|/--------------------0-8-5----------8------------------|/---------8/9-8--7-77-------9-99-----------------------|/--12-1212-------7-77-------9-99-7/9--7h5--------------|/--10-1010------------------7-77---------7-------------|/-8---8-8-------7--77------0--00-----------------------|
Bridge :
/--------------------------------------------------|/-8-8/10-8h10h8-7-----10/12------------------3-----|/----5-55----------7-77--------------0--2--4-2-----|/----5-55----------7-77-------5-55-4-2--4--5-4-----|/----7-77---------------------5-55-5---------2-----|/---5--55---------7--77------3--33-2-0--2--3-------|
/------------------------10-12---------------------|/------10/12------10/12-12---10/12--10h12h10-------|/--5-55-------7-77---------------------------------|/--5-55-------7-77---------------------------------|/--7-77--------------------------------------------|/-5--55------7--77---------------------------------|
/--------------------------------------------------|/-8--7/8-7-7/8-7------------------------5----------|/---------------9-9--5-55--7-77--9-7-9--6-Let ring-|/--------------------5-55--7-77--9-7-9--5----------|/--------------------7-77--------7-5-7--7----------|/-------------------5--55-7--77--------------------|
/---------10---------------------------------------|/-----------10h8-10-------0-10-8-------------------|/--------------------7-77----------7/9-------------|/--12-1212-----------7-77--------------7----/5-----|/--10-1010-------------------------------------7---|/-8---8-8-----------7--77--------------------------|
Solo :
/-------------------------------------------------------------|/------------------------10/12--------------------------------|/-14b-14b-14v-12-14-12/-------12--9-7----------------7--------|/-------------------------------------7-5-7v---7-7/9---7-5----|/---------------------------------------------------------7v--|/-------------------------------------------------------------|
/---------12--10/12-12v-/15-14/12--12-14--|/-10/12-12--12-------------------15-------|/-----------------------------------------|/-----------------------------------------|/-----------------------------------------|/-----------------------------------------|
/--------------------------------------------------|/-8h7-5--------------------------------------------|/------7--9-7/9v-------7---------------------------|/-------------------7/9--7h5h7h5-------------------|/-------------------------------7-------5/7--------|/---------------------------------5h7-3------------|
/-----------------------------------------|/-8/----------10/12-------8-10h8--8/------|/----9-9-7/9-------------9------9---------|/-----------------------------------------|/-----------------------------------------|/-----------------------------------------|
/--------------------------------------------------|/------------------------------10/12---------------|/-7---------------------12-12v-----12/-------------|/---7h5-7v-5--------12/14--------------------------|/----------------14--------------------------------|/--------------------------------------------------|
/---------12--10/12-12---15-----------------17b15--15---------|/-10/12-12--12-------------17-15--17-15/17-------17----8------|/--------------------------------------------------------9/---|/------------------------------------------------------9------|/-------------------------------------------------------------|/-------------------------------------------------------------|
Verse + outro :
/-10h12--12h10-12h10-12h10-12h10-12h10-12h10-|/--------------------------------------------|/--------------------------------------------|/--------------------------------------------|/--------------------------------------------|/--------------------------------------------|
/-12h10-12h10-12h10-12h10-12h10-----------------|/------------------------------10/8-10-8/10-8---|/--------------------------------------------9/-|/-----------------------------------------------|/-----------------------------------------------|/-----------------------------------------------|
/--------------------------------------|/--------------------------------------|/---------------9-----5-55--7-77-------|/-----------9h12-12---5-55--7-77--5-55-|/------10h12----------7-77--------5-55-|/-10h12--------------5--55-7--77-3--33-|
/----------------------------------------------------|/----------------------------------10/12-8v----------|/-14b--14-14h12-12v-14--5-55---7-77--------9/--------|/--------------14-------5-55---7-77-----------9-7-9--|/-----------------------7-77------------------9-7-9--|/----------------------5--55--7--77-----------7-5-7--|
/-------------------------------------------|/---------------------------------15/17-/15-|/-7---------------------7-77---9-99---------|/--7h5-7v-5---12-1212---7-77---9-99---------|/-------------10-1010----------7-77---------|/------------8---8-8---7--77--0--00---------|
/------------------------------------------------|/------------------------------------------------|/-14h12-14-12v-----------------------------------|/--------------14/--14b-12-14-12/-14b-12-14-12/--|/------------------------------------------------|/------------------------------------------------|
/---------------------------15h14-------|/--15-15/17v-17v--17v-17v--------17-17v-|/-16------------------------------------|/---------------------------------------|/---------------------------------------|/---------------------------------------|
/--------------------------------------------------|/-15-----------------------------------------------|/---16-14-14b-12-14-------9-12-11-9/--14b14v-12----|/---------------------9/12---------------------14v-|/--------------------------------------------------|/--------------------------------------------------|
/--------------------------------------------|/--------------------------------12----------|/-14b-12-14v-12/--9-----------14b--14-12-14v-|/-------------------7h5-7-5/-----------------|/--------------------------------------------|/--------------------------------------------|
/------------------15-17b-15---------15-17b-17b-|/-----------15-17------------17-17--17----------|/-12--14/16-------------------------------------|/-----------------------------------------------|/-----------------------------------------------|/-----------------------------------------------|
/-21b--19h17-15-------15h14-------15h14------|/---------------17v--------17-17-------17-17-|/--------------------------------------------|/--------------------------------------------|/--------------------------------------------|/--------------------------------------------|
/-12-------------------12--10/12-12--12h15h12-|/--------------10/12-12--12-------------------|/---14b-12-14v--------------------------------|/---------------------------------------------|/---------------------------------------------|/---------------------------------------------|
/-10-10/12------------------------------------|/---------------------------------------------|/-----------14b-12-14-12----------------------|/---------------------------------------------|/---------------------------------------------|/---------------------------------------------|
Tab by Rod
Tap to rate this tab
 
# A B C D E F G H I J K L M N O P Q R S T U V W X Y Z