Stone Sour - Say Youll Haunt Me tab version 7

Title: Say You'll Haunt Me
Artist: Stone Sour
Album: Audio Secrecy
Tabber: Satboog
Tempo = 140
Standard tuning (E A D G B E)

INTRO v v |------------|-------------|------------|--------|--------||--7---------|--7-----10---|--7-----9---|--7-----|--7-----||----7---6---|----7--------|----7-------|---7----|---7----||------9-----|------9------|------9-----|----9---|----9---||------------|-------------|------------|--------|--------||------------|-------------|------------|--------|--------|
VERSE
|----------------------------|----------------------------||--7-------------------------|----------------------------||o----7-----6--------6-------|-----6--------6------------o| 4x|o-------9-----9--------9----|--------9--------9-----9---o||-----------------9----------|--9--------9--------9-------||----------------------------|----------------------------|
|----------------------------|----------------------------||--10-------7----------------|----------------------------||o----7--------7-----6-------|-----6--------6------------o| 4x|o-------9--------9-----9----|--------9--------9-----9---o||----------------------------|--9--------9--------9-------||----------------------------|----------------------------|
PRE-CHORUS
(gtr 1)|----------------------------|----------------------------||--10-------7----------------|--10-------7----------------||o----7--------9-----9-------|-----7--------9-----9------o| 2x|o-------9--------9-----9----|--------9--------9-----9---o||----------------------------|----------------------------||----------------------------|----------------------------|
(gtr 2)|----------------------------|----------------------------||----------------------------|----------------------------||o-4-------------------------|---------------------------o| 2x|o-4--4M-4M-4M-4M-4M-4M-4M---|--4M-4M-4M-4M-4--2--2--6---o||--2--2M-2M-2M-2M-2M-2M-2M---|--2M-2M-2M-2M-2--0--0--4----||----------------------------|----------------------------|
CHORUS
(gtr 1 - 2x)|----------------------------|----------------------------||----------------------------|----------------------------||o-4--4--4--4--4--2L-2--7L---|--7--7--7--7--7--9--7--9----||o-4--4--4--4--4--2L-2--7L---|--7--7--7--7--7--9--7--9----||--2--2--2--2--2--0L-0--5L---|--5--5--5--5--5s-7--5s-7----||----------------------------|----------------------------|
|----------------------------|----------------------------||----------------------------|----------------------------||--------------------6--4L---|--4--4--4--4--4--6--4--6---o||--7--7--7--7--7--4--6--4L---|--4--4--4--4--4--6--4--6---o||--7--7--7--7--7--4--4--2L---|--2--2--2--2--2s-4--2s-4----||--5--5--5--5--5--2----------|----------------------------|
(gtr 2 @ second time)|-----------------------------------------------------------||-----------------------------------------------------------||--11--9--7--6--7s-9--7--6--7-6--4--6--7--4--7s-9--7--6--4--||-----------------------------------------------------------||-----------------------------------------------------------||-----------------------------------------------------------|
POS-CHORUS
|----------------------------|----------------------------||----------------------------|----------------------------||o---------------------------|----------------------------||o-4--4-----2--4--4-----7----|-----4-----2--4--4-----2----||--2--2-----0--2--2-----5----|-----2-----0--2--2-----0----||--------0M----------0M------|--0M----0M----------0M------|
|----------------------------|----------------------------||----------------------------|----------------------------||----------------------------|---------------------------o||--4--4--4--2--4--4-----7----|-----9-----6-----7-----2---o||--2--2--2--0--2--2-----5----|-----7-----4-----5-----0----||--------------------0M------|--0M----0M----0M----0M------|
VERSE PRE-CHORUS CHORUS (gtr 1 - 4x) (gtr 2 @ third and fourth time) POS-CHORUS (gtr 1 - 4x)
(gtr 2 @ third time)|----------------------|----------------------|----------------------||----------------------|----------------------|----------------------||--11-11- ... -11-11---|--13-13- ... -13-13---|--14-14- ... -14-14---||----------------------|----------------------|----------------------||----------------------|----------------------|----------------------||----------------------|----------------------|----------------------|
(gtr 2 @ fourth time)|----------------------|----------------------|--------------12-14---||----------------------|----------------------|----------------------||--11-11- ... -11-11---|--13-13- ... -13-13---|--14- ... -14---------||----------------------|----------------------|----------------------||----------------------|----------------------|----------------------||----------------------|----------------------|----------------------|
SOLO GTR (verse chords in background)
|-2s---|--14------12------10---|--9--7-------7-7--9-9--10-||------|-------12------12------|--------10----------------||------|-----------------------|--------------------------||------|-----------------------|--------------------------||------|-----------------------|--------------------------||------|-----------------------|--------------------------|
|-(10)s-12-12---12-14-12---|--14------12------10---||--------------------------|-------12------12------||--------------------------|-----------------------||--------------------------|-----------------------||--------------------------|-----------------------||--------------------------|-----------------------|
|--9--7-------7-7--9-9--10-|-(10)s-12-12---12-14-12---||--------10----------------|--------------------------||--------------------------|--------------------------||--------------------------|--------------------------||--------------------------|--------------------------||--------------------------|--------------------------|
|--14-10-9--------------|-------------------||----------10-----------|-------------------||-------------9~---7-6--|--7s11-7-6-7~------||-----------------------|-------------------||-----------------------|-------------------||-----------------------|-------------------|
|------------------------|-----------------------||------------------------|-----------------------||------4-6-7-7s11-9-7-6--|--7-9-7-6-7-6h7p6-4s2--||--5h7-------------------|-----------------------||------------------------|-----------------------||------------------------|-----------------------|
|--14-14-14----12------10--|--9---7---------||-----------12------12-----|----------10----||--------------------------|----------------||--------------------------|----------------||--------------------------|----------------||--------------------------|----------------|
|--7---9---10--12--14----||--10b-12b-13b-15b-17b---||------------------------||------------------------||------------------------||------------------------|
BRIDGE (bass and vocals) PRE-CHORUS (only gtr 2 - i.e. no clean gtr in this part) 4x CHORUS (gtr 1 - 4x) (gtr 2 @ third and fourth time) POS-CHORUS (gtr 1 - 2x)
(gtr 2 - 2x)|----------------------------|----------------------------||----------------------------|----------------------------||--11-11-11-11-11-11-11-11---|--11-11-11-11-11-11-11-11---||----------------------------|----------------------------||----------------------------|----------------------------||----------------------------|----------------------------|
FINAL
|------------------||------------------||------------------||--4--4--4--2--4---||--2--2--2--0--2---||------------------|
Legend L - tied note x - dead note h - hammer on/pull off b - bend s - slide ~ - vibrato g - ghost note > - accentuated note t - trill M - palm mute . - staccato P - popping (bass) S - slapping (bass) + - tapping W - wide vibrato < - fade in w - whammy bar = - tremolo picking v - brush up ^ - brush down V - pick stroke up n - pick stroke down
Tap to rate this tab
 
# A B C D E F G H I J K L M N O P Q R S T U V W X Y Z