Stone Temple Pilots - Core tab version 2

#----------------------------------PLEASE NOTE--------------------------------#
#This file is the author's own work and represents their interpretation of the#
#song. You may only use this file for private study, scholarship, or research.#
#-----------------------------------------------------------------------------#
#-- File created with Instab - http://www.pconline.com/~smcarey/instab.html --#
#-----------------------------------------------------------------------------#

Author/Artist: Stone Temple Pilots
Album Title: Core
Legend:
p pull off
h hammer on
/ slide up
\ slide down
p.m. palm mute
x scratch string
v vibrato
|--| Repeat previous bar


DEAD & BLOATED

D Tuning


|---------------------------------------------------------------------------| |---------------------------------------------------------------------------| |---------------------------------------------------------------------------| |-7--7--6p5-x-5p3-0---6p5-x-5p3-0--7--7--6p5-x-5v---6p5-x-5v--6p5-x-5p3-0-0-| |-5--5--6p5-3-5p3-0---6p5-3-5p3-0--5--5--6p5-3-5v---6p5-3-5v--6p5-3-5p3-0-0-| |-7--7--x---x-x---x---x---x-x---x--7--7--x---x-x----x---x-x---x---x-x---x-x-|Intro/Verse
|---------------------------------------------------------| |---------------------------------------------------------| |-----------4---4-4--4-4-x-x------------------------------| |-9---9-x-x-5---5-5--5-5-x-x-2--x-x-2--x-2--2-2-x-2-2-2-2-| |-9---9-x-x-5---5-5--5-5-x-x-2--x-x-2--x-2--2-2-x-2-2-2-2-| |-9---9-x-x------------------2--x-x-2--x-2--2-2-x-2-2-2-2-|Riff 1 P.M . . ... .......
|-------------------------0-0-0-0-------------------------0-0-0-0-----| |-------------------------0-0-0-0-------------------------0-0-0-0-----| |-------------------------x-x-x-x-------------------------x-x-x-x-----| |-4-4-4-4-4-4-4-4-4-4-4-4-4-4-4-4-4-4-4-4-4-4-4-4-4-4-4-4-4-4-4-4-4-4-| |-4-4-4-4-4-4-4-4-4-4-4-4-4-4-4-4-4-4-4-4-4-4-4-4-4-4-4-4-4-4-4-4-4-4-| |-2-4-4-2-4-4-2-4-4-2-4-4-4-4-4-4-2-4-4-2-4-4-2-4-4-2-4-4-4-4-4-4-2-4-|Interlude
|---------------------0-0-0-0---------------------------------| |---------------------0-0-0-0---------------------------------| |---------------------x-x-x-x---------------------------------| |-4-4-4-4-4-4-4-4-4-4-4-4-4-4-4-4-4-4-4-4-4-4-4-4-4-4-4-4-4-4-| |-4-4-4-4-4-4-4-4-4-4-4-4-4-4-4-4-4-4-4-4-4-4-4-4-4-4-4-4-4-4-| |-4-2-4-4-2-4-4-2-4-4-4-4-4-4-2-4-4-2-4-4-2-4-4-2-4-4-2-4-4-4-|
|------------------------|---------------------------|--|---| |------------------------|---------------------------|--|---| |------------------------|---------------------------|--|---| |-9--8-8--7--6-6--5---5--|-5\--2-2-x-5\--2-2-x-2-2-2-|2x|-2-| |-9--8-8--7--6-6--5---5--|-5\--2-2-x-5\--2-2-x-2-2-2-|--|-2-| |-9--8-8--7--6-6--5-7-5--|-5\--2-2-x-5\--2-2-x-2-2-2-|--|-2-|Chorus P.M. ... ..... .
|-------------|--| |-------------|--| |-------------|--| |-4-4-4-4-4-4-|--| |-4-4-4-4-4-4-|--| |-2-4-4-2-4-4-|--|Riff 2 (p.m. then not p.m.)
|-------------| |-------------| |-------------| |-7--7--------| |-5--5--------| |-7--7--------|End on
SEX TYPE THING Standard Tuning
|------------------------------| |------------------------------| |------------------------------| |-x-x--x-x--x-x--x-x--x-x-x-x--| |-7-7--7-7--7-7--7-7--7-7-7-7--| |-0-7--0-6--0-5--0-3--3-5-3-0--|Intro
|-----------------------------------|------------------------------------|--| |-----------------------------------|------------------------------------|--| |-------------------x---------------|--------------------x---------------|--| |-4-4--4-4--x-x-x-x-x--4-4-4-4-4-4--|-4-4-4-4-4-4--x-x-x-x--4-4-4-4-4-4--|--| |-4-4--4-4--x-x-x-x-x--4-4-4-4-4-4--|-4-4-4-4-4-4--x-x-x-x--4-4-4-4-4-4--|--| |-0-2--0-2--x-x-x-x----2-2-0-0-2-2--|-2-2-2-0-2-2--x-x-x----2-2-0-0-2-2--|--|Verse m harmonics>
|---------------------|-----------------|--| |---------3-----------|-------------3---|--| |-5---5-4-2---2-4-5---|-2-4-5---5-4-2---|--| |-5---5-4-0---0-4-5---|-0-4-5---5-4-0---|--| |-3---3-2-----0-2-3---|-0-2-3---3-2-----|--| |---------------------|-----------------|--|Chorus
|-0-0-0---0-0-0---0-0-0-0-0-0-0-0-0--0----0----0----0-----0--0--0---| |-3-3-3---5-5-5---7-7-7-9-9-9-9-9-9--11---11---11---11----11-11-11--| |-3-3-3---3-3-3---7-7-7-9-9-9-9-9-9--11---11---11---11----11-11-11--| |-------------------------------------------------------------------| |-------------------------------------------------------------------| |-------------------------------------------------------------------|Riff 1
WICKED GARDEN Standard Tuning
|-3--x-----------3--x-----------3--x-----------3--x---------------| |-3--x-3--x-x----3--x-3--x-2v---3--x-3--x-5v---3--x-3--x-5/10v-\--| |-x--x-2--x-2v---x--x-2--x-2v---x--x-2--x-2v---x--x-2--x-x--------| |------0--x-2v--------0--x-2v--------0--x-2v--------0--x-2/7-v-\--| |-----------------------------------------------------------------| |-----------------------------------------------------------------|Intro
|-------------------------0----0--|--| |-------------------------0----0--|--| |-------------------------x----x--|--| |-x----x-x-x-7--x-7--7--7-7\5--5--|--| |-5/7--7-7-7-7--x-7--7--7-7\5--5--|--| |-3/5--5-5-5-5--x-5--5--5-5\3--3--|--|Intro/Verse
|------------------------------|--|------------------------0----0--| |------------------------------|--|------------------------0----0--| |-x----x-x-x-x-x-x--x--x-7--6--|--|-x----x-x-x-x-x-x--x----x----x--| |-5h7--7-7-7-7-7-7--7--7-7--7--|--|-5h7--7-7-7-7-7-7--7--7-7\5--5--| |-0----0-0-0-0-0-0--0--0-0--0--|--|-0----0-0-0-0-0-0--0--7-7\5--5--| |------------------------------|--|----------------------5-5\3--3--|Verse Riff 2
|-------------------------------------------------------------| |---------------3--3-3--3-3-3---------------------------------| |-----------2---2--2-2--2-2-2---4-4-4-4-4-4-4-4-4-4-4-4-4-2-0-| |-4--4-4--4-2-0-0--0-0--0-0-0-0-4-4-4-4-4-4-4-4-4-4-4-4-4-2-0-| |-4--4-4--4-0-0---------------0-2-2-2-2-2-2-2-2-2-2-2-2-2-0-0-| |-2--2-2--2---0---------------0-------------------------------|Chorus
|-------------------------------3-------------------------| |---------------3--3-3--3-3-3---4-------------------------| |-----------2---2--2-2--2-2-2---3-------------------------| |-4--4-4--4-2-0-0--0-0--0-0-0-0-2-------------------------| |-4--4-4--4-0-0---------------0-2-------------------------| |-2--2-2--2---0---------------0-0-------------------------|Chorus End Strum
|---------------------------------------------------------| |---------------------------------------------------------| |---------------------------------------------------------| |-5--4-4--4--5-5-7--7-7-5-5-5-5\4--4--4--5-5-7--7-7-x-x-x-| |-5--4-4--4--5-5-7--7-7-5-5-5-5\4--4--4--5-5-7--7-7-x-x-x-| |-3--2-2--2--3-3-5--5-5-3-3-3-3\2--2--2--3-3-5--5-5-x-x-x-|Interlude > < End On
|---------------------------------------------------------|--| |---------------------------------------------------------|--| |---------------------------------------------------------|--| |-5\4--4--4--5-5-7--7-7-5-5-5-5\4--4--4--5-5-7--7-7-x-x-x-|--| |-5\4--4--4--5-5-7--7-7-5-5-5-5\4--4--4--5-5-7--7-7-x-x-x-|--| |-3\2--2--2--3-3-5--5-5-3-3-3-3\2--2--2--3-3-5--5-5-x-x-x-|--| < End
NO MEMORY Standard Tuning
|-----------------------------------------------------------------------| |-------0h1-----------1-----------2h3-----------------------------------| |-----2-------2-----0---0-------4-------4-------4-----------2-----------| |---2-------------2-------2---4---------------4---4-------2---2-------7-| |-0-------------3-----------2---------------5-------5---3-------3---8---| |-----------------------------------------3-----------1-----------6-----|Main Riff
|-----------------|-------------|-------------|---------0---|-------------| |-----------------|--3--1---0---|--3--1-------|--3--1---5---|--3--1-------| |--7--------------|--x------4---|--x------4---|--x------4---|--x------4---| |----7-------2-5--|--5------5---|--5------5---|--5------5---|--5----------| |------8---2------|--2------2---|--2----------|--2----------|--2----------| |--------0--------|--0----------|--0----------|--0----------|--0----------| 1st End 2nd End 3rd End 4th & 5th
SIN Standard Tuning
|--------0------------------------------0--------------------|--| |-x--x-x----x-x---------------x--x--x-x----x-x---------------|--| |-3--3-3----3-3-3--4--3--1----3--3--3-3----3-3-3--4--3--1----|--| |-2--2-2----2-2---------------2--2--2-2----2-2---------------|--| |------------------------------------------------------------|--| |------------------------------------------------------------|--|Intro
|------------------------------|--| |------------------------------|--| |-3-3-3-3--x-1-1-1-1--x-1-1--x-|--| |-2-2-2-2--x-2-2-2-2--x-2-2--x-|--| |-2-2-2-2--x-2-2-2-2--x-2-2--x-|--| |------------------------------|--|Intro/Verse
|-----------------------------------------------------------------| |-------0-----------0-----------0-------0-----------0-----------0-| |-----0---0-------0---0-------0-------0---0-------0---0-------0---| |-0-0-------0-0-0-------0---0-----0-0-------0-0-0-------0---0-----| |-2-----------4-------------------0-----------2-------------------| |-3-----------5-----------5-------1-----------3-----------3-------|Chorus
|--------------------------|--|---------------------| |-8--x-8--x-8--x-8--8-8-8--|--|-6--6--5---4--4--2---| |-7--x-7--x-7--x-7--7-7-7--|--|-5--5--5---4--4--2---| |-x--x-x--x-x--x-x--x-x-x--|--|-0--0--0---3--3--0---| |--------------------------|--|---------------------| |--------------------------|--|---------------------|Riff 1
|-3--3-3--3--3-3--3-3-3-3-3--3-3--3--3-3--3-3-3-3--3------3-3-3-3-3-----| |-3--3-3--1--1-1--1-1-1-1-3--3-3--1--1-1--1-1-1-1--3------0-2-0-2-3-----| |-x--x-x--x--x-x--x-x-x-x-x--x-x--x--x-x--x-x-x-x--x------x-x-x-x-x-----| |-----------------------------------------------------------------------| |-----------------------------------------------------------------------| |-----------------------------------------------------------------------|Interlude (Play lightly & strum near the bridge)
|---3---3---3---3-3-3-3-3--| |---3---3---3---3-3-3-3-3--| |---x---x---x---x-x-x-x-x--| |--------------------------| |--------------------------| |--------------------------|
NAKED SUNDAY Standard Tuning
|----------------------------------------| |------4----------1-------4----------1---| |-5--x-5--x-5--\--0--5--x-5--x-5--\--3---| |-x--x-x--x-x-----2--x--x-x--x-x-----2---| |-6--x----x-6--\-----6--x----x-6--\------| |----------------------------------------|Intro/Verse
|----------------------------|--|-------| |----4-----------------------|--|-1-----| |-5--5--5--x-x-x-0--x-0--x-x-|--|-3-----| |-x--x--x--x-x-x-2--x-2--x-x-|--|-2-----| |-6-----6--x-x-x-3--x-3--x-x-|--|-------| |----------------------------|--|-------|Chorus
CREEPStandard TuningStrum three notes per chord at a time C B7 Em7 G Asus2 |----2--3--|-3-----2--|-3---|-1-----3--|-2--| |-1--0--3--|-3--1--0--|-3---|-0--0--3--|-0--| |-0--2--0--|-0--0--2--|-0---|-0--2--0--|-2--| |-2--1--2--|-2--2--1--|-2---|-0--2--2--|-1--| |-3--------|----3-----|-----|----0-----|----| |----------|----------|-----|----------|----| Intro Verse End Mid Riff End
|----------------------------------------------------------------| |----------------------------------------------------------------| |----------------------------------------------------------------| |-----0-------0-------0-------0-2-----0-------0-------0----------| |---2-------0-------0---0-1-2-------2-------0-------0-----0-1-2--| |-0-----0-2-----2-3---------------0-----0-2-----2-3-----3--------|Chorus
|-3------------------------| |-3------------------------| |-0------------------------| |-2------------------------| |----------7-6---5\4---3-2-| |--------------7-----5-----|Chorus End Bass
|------------------------------------------------| |-3---3--------------------------3-------3-------| |-0------0---0-----0-------0---0----0----0-------| |-2----------4---4----4----2-------------4-------| |-2----------2-------------2-------------2-------| |------------0-------------0-------------0-------|Interlude Arpeggio Chords
PIECE OF PIE D tuning
|----------------|----------|----------|--0---0---|--0---0---| |----------------|--3---3---|--3---3---|--3---3---|--3---3---| |----------------|--2---2---|--1---2---|--2---1---|--2---2---| |-5-3-0-2-3-3-0--|--0---0---|--0---0---|----------|----------| |-5-3-0-2-3-3-0--|----------|----------|----------|----------| |-5-3-0-2-3-3-0--|----------|----------|----------|----------|Intro
|-----------------------------| |-----------------------------| |-----------------------------| |-5-3-0-3-0--5-3-0-3-0--0--0--| |-5-3-0-3-0--5-3-0-3-0--0--0--| |-5-3-0-3-0--5-3-0-3-0--0--0--|PreVerse
|--------------------------------| |-----------------------3-3---3--| |-----------------------1-1---2--| |-5-3-0-3-0-0-5-3-0-3-0-0-0---0--| |-5-3-0-3-0-0-5-3-0-3-0----------| |-5-3-0-3-0-0-5-3-0-3-0----------|Verse
|----------------------------------------------------0---0----| |----------------------------------------------------3---3----| |----------------------------------------------------2---2----| |-5-3-0-2-3----5-3-0-2-3----5-3-0-2-3----5-3-0-2-3-3-0--------| |-5-3-0-2-3----5-3-0-2-3----5-3-0-2-3----5-3-0-2-3-3-0--------| |-5-3-0-2-3----5-3-0-2-3----5-3-0-2-3----5-3-0-2-3-3-0--------|Pre Chorus
|-----------------------------------------------------------| |-----------------------------------------------------------| |--------------------------------------5/7--7--7-----5-7-7\-| |--------------x--5-5----5--5----------5/7--7--7-----5-7-7\-| |---------3/5--5--2-2h3--3--2----------3/5--5--5-----3-5-5\-| |-3h4-0-0------7--0-0----0--0--3h4-0-0-----------7-7--------| Chorus
|------------------------------------------------------------------| |-----1-------1-------1-------------------1-------1----------------| |---2-------1-------2-----------5------------------------------7---| |-1-----1-2-----2-1-----1-----4---------0---0---0-----5--5-x-x-7---| |-------------------------3/5-----5\1-1-------1-----1-3--3-x-x-5---| |-----------------------------------------------------5--5-x-x-----| Interlude/Outro
PLUSH Standard tuning
|-3--3---3---3-3-3-3-3-3-3-3--3---3---3-3-3--| |-3--3---2-----------------1--1---0---0-1-2--| |-0--0---3b----------------2--2---0---0-0-0--| |--------------------------------------------| |--------------------------------------------| |--------------------------------------------|Intro
|-3----3---3---3-3-3-3-3-3-3-3--3---3---3-3-3--|--| |-2/3--3---2-----------------1--1---0---0-1-2--|--| |-0----0---3b----------------2--2---0---0-0-0--|--| |----------------------------------------------|2x| |----------------------------------------------|--| |----------------------------------------------|--|
|-3----3---3---3-3-3-3-3-3-3-3--3---3------| |-2/3--3---2-----------------1--1---0------| |-0----0---3b----------------2--2---0------| |------------------------------------------| |------------------------------------------| |------------------------------------------|
|-3--3------------------------------------------------------------------| |-3--3------------------------------------------------------------------| |-0--0--------------------------------------------------3-3--3--x-x-x-3-| |-------x-x-x-0-0--0--x-x-x-0-0--0--x-x-x-2-2--0--x-x-x-1-1--1--x-x-x-1-| |-------x-x-x-0-0--0--x-x-x-0-0--0--x-x-x-0-0--0--x-x-x-1-1--1--x-x-x-1-| |-------x-x-x-2-2--0--x-x-x-1-1--1--x-x-x-0-0--0--x-x-x-----------------|Verse
|-------------|--| |-------------|--| |-3--3--2-2-0-|--| |-1--1--3-3-0-|2x| |-1--1--3-3-0-|--| |-------------|--|
|-0--0-0----------0-0-0-|--| |-3--3-3----------3-3-3-|--| |-2--2-2-0--0--0--0-0-0-|--| |--------x--x--x--------|4x| |--------3--2--3--------|--| |-----------------------|--|Riff 1
|---------------------------------------------------------------------| |---------------------------------------------------------------------| |-3--3--x-x-x-3-3--3--x-x-x-2-2--2--x-x-x-2-2--2--x-x-x-3-3--3--x-x-x-| |-1--1--x-x-x-1-1--1--x-x-x-3-3--3--x-x-x-3-3--3--x-x-x-1-1--1--x-x-x-| |-1--1--x-x-x-1-1--1--x-x-x-3-3--3--x-x-x-3-3--3--x-x-x-1-1--1--x-x-x-| |---------------------------------------------------------------------|Interlude
|----------------------------------------------|--| |----------------------------------------------|--| |-3-3--3--x-x-x-2-2--2--x-x-x-2-2--x-x-x-2-2-x-|--| |-1-1--1--x-x-x-3-3--3--x-x-x-3-3--x-x-x-3-3-x-|2x| |-1-1--1--x-x-x-3-3--3--x-x-x-3-3--x-x-x-3-3-x-|--| |----------------------------------------------|--|
|------------------------------------------------------|--| |------------------------------------------------------|--| |-------------------------------------x---x-x-x-x-x-x--|--| |-x-x-x-x-x--x-x-x-x--x-x--x-x-x-x-x--7/8-8-8-8-7-7-7--|3x| |-5-5-5-5-5--5-3-3-3--x-3--3-3-3-3-3--5/6-6-6-6-5-5-5--|--| |-3-3-3-3-3--3-1-1-1--x-1--0-0-0-0-0-------------------|--|G1 Chorus m m m
|--------------------------------------------------| |--------------------------------------------------| |-------------------------------------x----x---x---| |-x-x-x-x-x--x-x-x-x--x-x--x-x-x-x-x--7/8--8---7---| |-5-5-5-5-5--5-3-3-3--x-3--3-3-3-3-3--5/6--6---5---| |-3-3-3-3-3--3-1-1-1--x-1--0-0-0-0-0---------------|G1 Chorus End m
|----------------------------------------------------------|--| |----------------------------------------------------------|--| |------7---7---------7--x-x------5---5---------5-------5---|--| |----9---9-----9---9----x-7----5---5-----5---5---5---5---5-|--| |-10-------------8------x-8--7-------------6-------5-------|--| |----------------------------------------------------------|--|G2 Chorus
|-------------------------------------------------| |-------------------------------------------------| |------7---7---------7--x-x------5---5----x---x---| |----9---9-----9---9----x-7----5---5----5-8---7---| |-10-------------8------x-8--7------------6---5---| |-------------------------------------------------|G2 Chorus End
WET MY BEDStandard TuningPluck |-5----------4----------3----------2---2--------| |-----3--0-------3--0-------3--0----------------| |-----2--2-------2--1-------2--0-------4--4--4--| |--------------------------------------2--3--4--| |-----------------------------------------------| |-----------------------------------------------|Main Riff
CRACKERMAN Standard Tuning
|-----------------------------------------------------------| |-----------------------------------------------------------| |-4-4-4-4-4-4-4-4-4-4-4-4-4---------------------------------| |-4-4-4-4-4-4-4-4-4-4-4-4-4-4-4-4-4-4-4-4-4-4-4-4-4-4-4-4-4-| |-0-2-2-0-2-2-0-2-2-0-2-2-2-4-4-4-4-4-4-4-4-4-4-4-4-4-4-4-4-| |---------------------------0-2-2-5-2-2-0-2-2-5-2-2-0-2-2-2-| Chorus/Intro
|--------------------------------------| |--------------------------------------| |-4-4-4-4-4-4-4-4-4-4-4-4-4-2-/-8------| |-4-4-4-4-4-4-4-4-4-4-4-4-4-2-/-7------| |-0-2-2-0-2-2-0-2-2-0-2-2-2-0----------| |--------------------------------------|Chorus/Intro End
|---------------------------------|--|-------| |---------------------------------|--|-------| |---------------------------------|--|-------| |-4-4-4-4-4-4-4-4-4-4-4-4-4-4-4-4-|--|-------| |-4-4-4-4-4-4-4-4-4-4-4-4-4-4-4-4-|--|-------| |-0-2-2-5-2-2-0-2-2-5-2-2-0-2-2-2-|--|-------|Verse Chorus
|--------------------------------------------------------------------------| |---------3------------------------------3-----------------------3---------| |-----2---2---4b5r4-2-4-2-4b5r4------2---2-------------------2---2---4b5r4-| |-4---2---0----------------------4---2---0---------------4---2---0---------| |-4---0--------------------------4---0-------------------4---0-------------| |-2------------------------------2--------------5b6r5--5-2-----------------|Interlude
|----------------------5--------| |----------------------3--------| |-2-4-2-4b5r4------2---2--------| |--------------4---2------------| |--------------4---0------------| |--------------2----------------|
|-14-----14--------13-13-----13--------13-13-------------------------| |-17b19-----17b19-----17b19-----17b19-----17b19r17b19r17--17b18-17---| |---------------------------------------------------------16b17------| |---------------------------------------------------------14b15------| |--------------------------------------------------------------------| |--------------------------------------------------------------------|Solo
|------------------------------------------------------------------------------| |-17b19r17--17b19vvvvv-17-17---------------------17----------17b18r17-17-------| |----------------------16-16h18--13b15r13-13\9---16b17r16-16----------16b17r16-| |--------------------------------14b16r14-14\10--------------------------------| |--------------------------------11b13r11-11\7---------------------------------| |------------------------------------------------------------------------------|
|-------------------------------------------------17-19b21r19--19b21r19--19b21-| |------------------------------------------------------------------------------| |-16-16b18r16-16b17r16-16vvvvvv-14h16-16b18r16---------------------------------| |-------------16b17r16-------------------------14------------------------------| |------------------------------------------------------------------------------| |------------------------------------------------------------------------------|
|-17---------------------------------------------------11-------------11---------| |----19-17-14------------------------------------------14b16r14-14vvv-14b16r14---| |-------------17-16-14-----------------------------------------------------------| |----------------------16--------------------------------------------------------| |-------------------------16-15-13-----------------------------------------------| |----------------------------------14b15--14b-16-r14-----------------------------|
|-----11-----------14----------------------------| |-14v-14b16r14-14v-17b19-r17---------------------| |------------------------------------------------| |------------------------------------------------| |-------------------------------12\--------------| |------------------------------------------------|
|--------| |--------| |-8------| |-7------| |-0------| |--------|End
WHERE THE RIVER GOESStandard Tuning |--------3-3-----------3-3-----------3-3----------------|--|--------| |--------3-3-----------3-3-----------3-3----------------|--|--------| |--------1-1-----------1-1-----------1-1----------------|--|--------| |-------------------------------------------------------|--|-7--8---| |----------------------------------------------------4b-|--|-7--7---| |-3b--0-------5-3b--0-------5-3b--0-------5-3b-5b-3b----|--|-5--6---|Intro/Verse End
|-----------------------------------0-|--| |-------------------------------0-0-0-|--| |-------------------------------4-4-4-|--| |-5/7-7-7-7-7\5-5-5-5-5/7-7-7-7-5-5---|--| |-5/7-7-7-7-7\5-5-5-5-5/7-7-7-7-------|--| |-3/5-5-5-5-5\3-3-3-3-3/5-5-5-5-------|--|Riff 1
|--------|--------------------------------------------------------------|--| |--------|-5/7-x-x-5/7-x-x-5/7-x-x-8--x-x-5/7-x-x-5/7-x-x-5/7-x-x-8--5--|--| |--------|-5/7-x-x-5/7-x-x-5/7-x-x-7--x-x-5/7-x-x-5/7-x-x-5/7-x-x-7--5--|--| |-7--8-\-|-x---x-x-x---x-x-x---x-x-x--x-x-x---x-x-x---x-x-x---x-x-x--x--|--| |-7--7-\-|--------------------------------------------------------------|--| |-5--6-\-|--------------------------------------------------------------|--|Chorus
|------------------| |------------------| |------------9\----| |-7----8-\---8\----| |-7----7-\---7\----| |-5----6-\---------|Chorus End
|---------10----------10--------------6--------6---| |-------------12-------------------------8---------| |-----12----------12---------------8--------8------| |--------------------------------------------------| |--------------------------------------------------| |-12-----------------------12\8-8------------------|Bridge
|--------------10----------10-------------6--------6--|--| |------------------12------------------------8--------|--| |----------12----------12--------------8--------8-----|--| |-----------------------------------------------------|--| |-----------------------------------------------------|--| |-8/12-12----------------------12\8-8-----------------|--|Bridge Cont...
|------3------------------------|---------| |------3------------------------|---------| |------5-------------------9----|---------| |-7----5-----x-x-7----8----8----|---------| |-7----3-----x-x-7----7----7----|---------| |-5----3-----x-x-5----6---------|---------|Bridge end solo
Tap to rate this tab
 
# A B C D E F G H I J K L M N O P Q R S T U V W X Y Z