Stone Temple Pilots - Black Again tab

============================================================================

Tabbed by : SaltyOreo17@yahoo.com
Band : Stone Temple Pilots
Song : Black Again
Album : Shangri-LA-DEE-DA

============================================================================
Legend

 /   slide up
 \   slide down
 h   hammer-on
 p   pull-off
 ~   vibrato
 *   harmonic
 x   Mute note
 ^   Whammy bar
|--| Palm Mute
============================================================================

Tuning:
(Guitar 1): eGBDAE

============================================================================
Intro
============================================================================

x2||----------------------------||||----------------------------||||----11-----9-----7-----8----||||-------10-----8----6-----7--||||----------------------------||||--10-----8-----6-----7------||
||--------------------------------||||--------------------------------||||----11b-----9b-----7b-----8b----||||-------10b-----8b----6b-----7b--||||--------------------------------||||--10------8------6------7-------||
||----------------------------||||----------------------------||||----11-----9-----7-----8----||||-------10-----8----6-----7--||||----------------------------||||--10-----8-----6-----7------||
============================================================================ Verse ============================================================================
x4||-----3--||||--1--3--||||--0--0--||||--2--0--||||--3--2--||||-----3--||
Strum these 2 chords ============================================================================ Chorus ============================================================================
x4||--------------------------||||--------------------------||||--11p9h11p9--9p7h9p7--7/--||||--9----9-----7---7----5/--||||--------------------------||||--------------------------||
============================================================================ Fill ============================================================================
||--------------||||--1--1--------||||--0----0------||||--2------2----||||--3--------3--||||--------------||
============================================================================ Intro Riff ============================================================================
x2||----------------------------||||----------------------------||||----11-----9-----7-----8----||||-------10-----8----6-----7--||||----------------------------||||--10-----8-----6-----7------||
============================================================================ Verse ============================================================================
x4||-----3--||||--1--3--||||--0--0--||||--2--0--||||--3--2--||||-----3--||
Strum these 2 chords ============================================================================ Chorus ============================================================================
x4||--------------------------||||--------------------------||||--11p9h11p9--9p7h9p7--7/--||||--9----9-----7---7----5/--||||--------------------------||||--------------------------||
============================================================================ Fill ============================================================================
||--------------||||--1--1--------||||--0----0------||||--2------2----||||--3--------3--||||--------------||
============================================================================ Intro Riff ============================================================================
x2||----------------------------||||----------------------------||||----11-----9-----7-----8----||||-------10-----8----6-----7--||||----------------------------||||--10-----8-----6-----7------||
============================================================================ Solo ============================================================================
||---------------------------------||||---------------------------------||||--11--9--11---7---11--9--11---7--||||---------------------------------||||---------------------------------||||---------------------------------||
============================================================================ Chorus ============================================================================
x4||--------------------------||||--------------------------||||--11p9h11p9--9p7h9p7--7/--||||--9----9-----7---7----5/--||||--------------------------||||--------------------------||
============================================================================ Fill ============================================================================
||--------------||||--1--1--------||||--0----0------||||--2------2----||||--3--------3--||||--------------||
============================================================================ THATS ALL PLEASE RATE.
Tap to rate this tab
 
# A B C D E F G H I J K L M N O P Q R S T U V W X Y Z