Stone Temple Pilots - Church On Tuesday tab

CHURCH ON TUESDAY
STONE TEMPLE PILOTS
from: N4


--------2---2---2-2--------------2---2---2-2--|--------2---2---2-2--------------2---2---2-2--|-2-h4---4---4---4-4-------2-h4---4---4---4-4--|-2-h4---4---4---4-4-------2-h4---4---4---4-4--|-2------2---2---2-2-------2------2---2---2-2--|----------------------------------------------|guit1
---------------------------------2---2---2-2--|---0---0---0---0-------0---------2---2---2-2--|-6/8---6---4---2-------4---2h4---4---4---4-4--|---------------------------2h4---4---4---4-4--|---------------------------2-----2---2---2-2--|----------------------------------------------| x2guit1 And I don't believe it...
-----------------------------0---0---0---0-0--|-----------------------------0---0---0---0-0--|-----------------------------1---1---1---1-1--|-----------------------------2---2---2---2-2--|-------------0---2---4---5---2---2---2---2-2--|-0---2---3------------------------------------| x2guit1 I find a way...
---------------------------------2---2---2-2--|---0---0---0---0-------0---------2---2---2-2--|-6/8---6---4---2-------4---2h4---4---4---4-4--|---------------------------2h4---4---4---4-4--|---------------------------2-----2---2---2-2--|----------------------------------------------| x2guit1 And I don't believe it...
-----------------------------0---0---0---0-0--|-----------------------------0---0---0---0-0--|-----------------------------1---1---1---1-1--|-----------------------------2---2---2---2-2--|-------------0---2---4---5---2---2---2---2-2--|-0---2---3------------------------------------| x2guit1 I find a way...
-----------------------------------------------------|-----------------------------------------------------|-----------------------------------------------------|-6h7-7-7---6-7-6-7---6-7-6-6h7-7-7---6-7-6-7---6-7-6-|-5---5-5---5-5-5-5---5-5-5---------------------------|---------------------------8---8-8---8-8-8-8---8-8-8-|
guit1Father's always...---------------------------0---0---0---0-0--|---------------------------0---0---0---0-0--|---------------------------1---1---1---1-1--|-6h7-7-7---6-7-6-7---6-7-6-2---2---2---2-2--|---------------------------2---2---2---2-2--|-7---7-7---7-7-7-7---7-7-7-0---0---0---0-0--|
-----------------------------------------------------|-----------------------------------------------------|-----------------------------------------------------|-6h7-7-7---6-7-6-7---6-7-6-6h7-7-7---6-7-6-7---6-7-6-|-5---5-5---5-5-5-5---5-5-5---------------------------|---------------------------8---8-8---8-8-8-8---8-8-8-|guit1Father's always...
---------------------------0----------------|---------------------------0----------------|---------------------------1----------------|-6h7-7-7---6-7-6-7---6-7-6-2----------------|---------------------------2----------------|-7---7-7---7-7-7-7---7-7-7-0----------------|
---------------------------------2---2---2-2--|---0---0---0---0-------0---------2---2---2-2--|-6/8---6---4---2-------4---2h4---4---4---4-4--|---------------------------2h4---4---4---4-4--|---------------------------2-----2---2---2-2--|----------------------------------------------| x2guit1 And I don't believe it...
-----------------------------0---0---0---0-0--|-----------------------------0---0---0---0-0--|-----------------------------1---1---1---1-1--|-----------------------------2---2---2---2-2--|-------------0---2---4---5---2---2---2---2-2--|-0---2---3------------------------------------|guit1 I find a way...
-----------------------------------------------------------|-----------------------------------------------------------|-----------------------------------------------------------|-------------------------------------------------2---4---5-|-------------0---2---4---5-------0---2---4---5-------------|-0---2---3-------------------3-----------------------------|guit1 I find a way...
-----------------------------------------------------|-----------------------------------------------------|-----------------------------------------------------|-6h7-7-7---6-7-6-7---6-7-6-6h7-7-7---6-7-6-7---6-7-6-|-5---5-5---5-5-5-5---5-5-5---------------------------|---------------------------8---8-8---8-8-8-8---8-8-8-|
guit1Father's always...---------------------------0---0---0---0-0---|---------------------------0---0---0---0-0---|---------------------------1---1---1---1-1---|-6h7-7-7---6-7-6-7---6-7-6-2---2---2---2-2---|---------------------------2---2---2---2-2---|-7---7-7---7-7-7-7---7-7-7-0---0---0---0-0---|
D C-----------------------------------------------------|-----------------------------------------------------|-----------------------------------------------------|-6h7-7-7---6-7-6-7---6-7-6-6h7-7-7---6-7-6-7---6-7-6-|-5---5-5---5-5-5-5---5-5-5---------------------------|---------------------------8---8-8---8-8-8-8---8-8-8-|
guit1Father's always...B (guit2)---------------------------|---------------------------|---------------------------|-6h7-7-7---6-7-6-7---6-7-6-|---------------------------|-7---7-7---7-7-7-7---7-7-7-| repeat until the end
add guit3 on 4th time-2---2---2---2---0---0---0---0-------------------|---3---3---3---3---1---1---1---1-4---4---4---4---|-----------------------------------4---4---4---4-|-------------------------------------------------|-------------------------------------------------|-------------------------------------------------|
Tap to rate this tab
 
# A B C D E F G H I J K L M N O P Q R S T U V W X Y Z