Strapping Young Lad – Detox tab

Band:  Strapping Young Lad
Album: City	
Song:  Detox

Copyright (c)  Century Media - 1997 (?)
Version 1.0 - October, 22 2005

Transcribed By: Daniel Gainer	
Email:          Wraithninja5000@yahoo.com


.  - palm mute           /  - slide up to
\  - slide down to       ~  - vibrato
h  - hammer on           ^  - Bend
p  - pull off            Suffixes for bend
t  - tap                 f  - full bend    h - half bend
*- pinched harmonic    q  - quarter bend t - tap bend
b  - Hold bend    r release bend
x  - Stuccatto           ~  - vibrato bend
,  - slight palm mute    () - ghost note, sustained note
"  - tremolo note        <> - Trill

C G C G C E

Riff 1 x 2 (Play Filler 1 after 2nd time)

|---------------------------------------------------------------------------||---------------------------------------------------------------------------||---------------------------------------------------------------------------||------------44------------------44------------------33------------------33-||2-44-2-55-2-44-2-55-2-44-2-55-2-44-2-55-2-44-2-55-2-33-2-55-2-44-2-55-2-33-||2-44-2-55-2----2-55-2-44-2-55-2----2-55-2-44-2-55-2----2-55-2-44-2-55-2----| . .. . .. . .. . .. . .. . .. . .. . .. . .. . .. . .. . .. . .. . .. . ..
Filler 1
|------||------||------||3-3-3-||3-3-3-||------|
Riff 2 x 8
|----------------------||----------------------||----------------------||----------------------||2-44-2-55-2-44-2-55-2-||2-44-2-55-2-44-2-55-2-| . .. . .. . .. . .. .
Riff 3 x 8 (Play Filler 2 after last time)
|--------||--------||--------||--------||6-6-622-||6-6-622-| ..
Filler 2 (pretty fast but it's close. You can get away with not playing it at all.)
|---------||---------||---------||---------||66225425-||66225425-| ........
Riff 2 x 4 Riff 3 x 7 Filler 3
|--------------||--------------||--------------||--------------||0-6-7-8-2-4-5-||0-6-7-8-2-4-5-| . . .
Riff 2 x 4 Riff 4 x 4
|-----------------||-----------------||-----------------||5555555555555555-||3333333333333333-||-----------------|
RIff 2 x 4 Riff 4 x 4 (Filler 4 at end of last half)
Filler 4|---------||---------||---------||77777777-||55555555-||---------|
Riff 2 x 4 Riff 4 x 3 Filler 4 x 2 Riff 5 x 4 (Filler 5 at end)
|------------------------------------------------||------------------------------------------------||----------------------------------------------8-||4-4-4----3----3----3---6-6-6----5----5----5---9-||2-2-2-22-3-22-3-22-3-2-4-4-4-44-5-44-5-44-5-4-7-||------22---22---22---2-------44---44---44---4---| . . .. . .. . .. . . . . . .. . .. . .. . . .Filler 5!
|--||--||7-||7-||5-||--|
Riff 2 x 4 Riff 4 x 4 Riff 2 x 4 Riff 4 x 4 (Filler 4 for second half) Riff 2 x 4 Riff 4 x 3 Filler 4 x 2 Riff 5 x 4 Riff 6
|------------------------------------||------------------------------------||------------------------------------||99999999----------77777777----------||77777777-99999999-55555555-77777777-||---------99999999----------77777777-|
Riff 7
|------------------------------------||------------------------------------||------------------------------------||99999999----------------------------||77777777-99999999-88888888-44444444-||---------99999999-88888888-44444444-|
Riff 6 Riff 8
|----------------------------------||----------------------------------||----------------------------------||----------------------------------||8888888888888888-5555555555555555-||8888888888888888-5555555555555555-|
NOW ALL PALM MUTED. Riff6 Riff7 Riff6 Riff8 (not palm muted) Riff 9 x 4(Play Filler 6 at 4th)
|---------------------------------------------------||---------------------------------------------------||---------------------------------------------------||---------------------------------------------------||2-h4-2-h4-2-h4-2-h4-2-h4-2-h4-2-h4-2-h4-2-h4-242h4-||2-h4-2-h4-2-h4-2-h4-2-h4-2-h4-2-h4-2-h4-2-h4-242h4-|
Filler 6
|--------------||--------------||--------------||--------------||4-22-4-22-4-2-||4-22-4-22-4-2-| . .. . .. . .Riff 10 x 4 (Palm mute first 2 every time after the 2nd rep)
|------------------------||------------------------||------------------------||------------------------||222-2-66666-444-4-88888-||222-2-66666-444-4-88888-|
Filler 7
|--------------||--------------||--------------||1----2----1---||1-22-2-22-1-2-||--22---22---2-| . .. . .. . .
Riff 10 x 4 (Palm mute first 2 after the 2nd rep) Filler 7 Riff 11 x 6
|------------------------||------------------------||------------------------||------------------------||222-22-2222-666-66-6666-||222-22-2222-666-66-6666-|
Filler 7 Riff 11 x 4 Riff 12
|------------------------------------------------------------------------||------------------------------------------------------------------------||--------55----------------------------------77--------------------------||66554455--665566--------------------66554455--665566--------------------||-----------------44-2-44-2-44-2-44-2----------------44-2-44-2-44-2-44-2-||-----------------44-2-44-2-44-2-44-2----------------44-2-44-2-44-2-44-2-| ................... . .. . .. . .. ................... . .. . .. . .. .
|------------------------------------------------------------------------||------------------------------------------------------------------------||--------55---------------------------------77---------------------------||66554455--665566-------------------66554455-----------------------------||----------------44-2-44-2-44-2-44-2-----------6-5-4-44-2-44-2-44-2-44-2-||----------------44-2-44-2-44-2-44-2-----------6-5-4-44-2-44-2-44-2-44-2-| .................. . .. . .. . .. ............. . . .. . .. . .. . .. .
Riff 13
|------------------------------------||------------------------------------||--------77--------------------------||66554455----------------------------||----------6-5-4-44-2-44-2-44-2-44-2-||----------6-5-4-44-2-44-2-44-2-44-2-| ........... . . .. . .. . .. . .. .
Riff 14
|-------------------||-------------------||-------------------||-------------------||22222222-2-55-2-55-||22222222-2-55-2-55-| ........ . .. . ..
Rff 12 x 1.5 Play this instead of the last 2. Hard to make out.
|--------------------------------------||--------------------------------------||--------------------------------------||665544--------------------------------||------7744-6-5-4-44-2-44-2-44-2-44-2-||-----------6-5-4-44-2-44-2-44-2-44-2-| .......... . . . .. . .. . .. . .. .
Riff 15 I can't make out what the hell they are doing, but this is what I play.
|------------------------------------------------------||------------------------------------------------------||------------------------------------------------------||------------------------------------------------------||22-33-2222-33-2222-33-2222-33-2222-33-2222-33-2222-33-||22-33-2222-33-2222-33-2222-33-2222-33-2222-33-2222-33-| .. .. .... .. .... .. .... .. .... .. .... .. .... ..
RIff 2 x 4 Riff 4 x 3 Filler 4x 2 Riff 5 x 4 (Filler 5 at end) Riff6 Riff7 Riff6 Riff8 /Palmmute Riff6 Riff7 Riff6 Riff8 /end Palmmute Riff 10 Jeez that song changes too much. I played it in CGCFAD but I'm pretty sure it's tabbed right for CGCGCE. Any comments would be appreciated.
Please rate this tab:
x1.0