Strapping Young Lad - Home Nucleonics tab

Band:  Strapping Young Lad
Album: City	
Song:  Home Nucleonics

Copyright (c)  Century Media - 1997 (?)
Version 1.0 - October, 23 2005

Transcribed By: Daniel Gainer	
Email:          Wraithninja5000@yahoo.com


.  - palm mute           /  - slide up to
\  - slide down to       ~  - vibrato
h  - hammer on           ^  - Bend
p  - pull off            Suffixes for bend
t  - tap                 f  - full bend    h - half bend
*- pinched harmonic    q  - quarter bend t - tap bend
b  - Hold bend    r release bend
x  - Stuccatto           ~  - vibrato bend
,  - slight palm mute    () - ghost note, sustained note
"  - tremolo note        <> - Trill

C G C G C E

Riff 1 (Stupidly hard to hear)

|----------------------------------------------------------------------||----------------------------------------------------------------------||----------------------------------------------------------------------||3---3---3---3---3---3---3---3---3---3---3---3---3---3---3---3---------||3-0-3-0-3-0-3-0-3-0-3-0-3-0-3-0-3-0-3-0-3-0-3-0-3-0-3-0-3-0-3-0-22222-||0-0-0-0-0-0-0-0-0-0-0-0-0-0-0-0-0-0-0-0-0-0-0-0-0-0-0-0-0-0-0-0-22222-| .....
Riff 2 x 2 (one less 2 at end of 2nd time)
|------------------------------------||------------------------------------||------------------------------------||------------------------------------||3-0-2-0-3-0-2-6-3-0-2-0-3-0-2-2-2-2-||3-0-2-0-3-0-2-6-3-0-2-0-3-0-2-2-2-2-| . . . .
Riff 3 (Not quite sure here....)
|-----------------------------------------------||-----------------------------------------------||-----------------------------------------------||----6-----------6-----------6-----------6------||653-4-653653653-4-653653653-4-653653653-4-1122-||653---653653653---653653653---653653653---1122-| ... ......... ......... ......... ....
Riff 2 x 2 Riff 3 Riff 4 x 3
|-------------------------||-------------------------||-------------------------||-------------6---------6-||3-5-2--------4---------4-||3-5-2-555-333---555-333--| . .
Filler 1
|----------------------------------------------------------------------||----------------------------------------------------------------------||----------------------------------------------------------------------||----------------------------------------------------------------------||3-5-2-3-0-0-0-0-0-0-0-0-0-0-0-0-0-0-0-0-0-0-0-0-0-0-0-0-0-0-0-0-22222-||3-5-2-3-0-0-0-0-0-0-0-0-0-0-0-0-0-0-0-0-0-0-0-0-0-0-0-0-0-0-0-0-22222-| . . . . . . . . . . . . . . . . . . . . . . . . . . . . . . . . .....
Riff 5 (Not sure here)
|----------------------------------||----------------------------------||-8-8-8-8-8-8-8-8-8-8-8-8-8--------||-9-9-9-9-9-9-9-9-9-9-9-9-9--------||-7-7-7-7-7-7-7-7-7-7-7-7-7--22222-||0-0-0-0-0-0-0-0-0-0-0-0-0-0-22222-| ........................... .....
Riff 2 x 2 Riff 3 Riff 4 x 3 FIller 2
|--------||--------||--------||--------||--------||3-5-2-3-| . . . .
Riff 6 x 3
|--------------------------------||--------------------------------||--------------------------------||--------------------------------||--------------------------------||6-0-5-0-4-8-0-0-6-0-5-0-4-8-0-0-|
Filler 4
|--------------||--------------||--------------||--------------||--------22222-||6-0-5-0-22222-| .....Riff 6 x 8 (Accross C and G now. Palm muted last 2 times)
RIff 7 x 4
|----------------||----------------||----------------||----------6-----||333333333-4-010-||333333333---010-| ......... ...
Riff 6 x 2 (Palmmuted)Filler 5 at very end but I might be hearing things. Filler 5
|-----||-----||-----||-----||-----||13\4-|
Riff 7 x 4 Riff 6 x 2 (Palmmuted) Riff 7 x 4 Wait.... Filler 5
|------||------||------||------||22222-||22222-| .....
Riff 2 x 2 Riff 3 Ending
|-------------------------||-------------------------||-------------------------||-------------------------||3333-3333-3333-3333-3333-||3333-3333-3333-3333-3333-| .... .... .... .... ...
Home Nucleonics. All corrections are welcome. Whether or not I fix it though....
Tap to rate this tab
 
# A B C D E F G H I J K L M N O P Q R S T U V W X Y Z