Strike Anywhere - I Will Question The Answer tab

Strike Anywhere-Question the Answer

Tabbed by: James Marsh

I saw there wasnt any tabs for it so i figured i'd tab it. Hope you like it

(Intro)

|----------------------------------------------------------------||----------------------------------------------------------------||----------------------------------------------------------------||-0-0---0-0-0---0-0-0---0-0-0---0-8-8---8-8-8---8-3-3---3-5-5----||-0-0---0-0-0---0-0-0---0-0-0---0-8-8---8-8-8---8-3-3---3-5-5----||-0-0---0-0-0---0-0-0---0-0-0---0-8-8---8-8-8---8-3-3---3-5-5----|
(Chorus)|-----------------------------------------------------------------||-----------------------------------------------------------------||-----------------------------------------------------------------||-0-0---0-0-0---0-8-8---8-3-3-------------------------------------| Repeat x8|-0-0---0-0-0---0-8-8---8-3-3-------------------------------------||-0-0---0-0-0---0-8-8---8-3-3-------------------------------------|
|--------------------------------------------------------------------||--------------------------------------------------------------------||--------------------------------------------------------------------||-0--000000000000-12--1010101010101010-888888888888-1010101010101010-|Repeat x2|-0--000000000000-12--1010101010101010-888888888888-1010101010101010-||-0--000000000000-12--1010101010101010-888888888888-1010101010101010-| ^For the record, those are 10's not 1's and 0's
|-------------------||-10-8----10-8------||------10-------10--| Play this after the second time|-------------------||-------------------||-------------------|
(Chorus 2)|------------------------------------------------------------------------------||------------------------------------------------------------------------------||------------------------------------------------------------------------------||-0-0-0-0-0-0-0-0-10-10-10-10-10-10-10-10-8-8-8-8-8-8-8-8-10-10-10-10-10-10-10-||-0-0-0-0-0-0-0-0-10-10-10-10-10-10-10-10-8-8-8-8-8-8-8-8-10-10-10-10-10-10-10-||-0-0-0-0-0-0-0-0-10-10-10-10-10-10-10-10-8-8-8-8-8-8-8-8-10-10-10-10-10-10-10-|
(Bridge)|-----------------------------------------||-----------------------------------------||-14-14---14-14-14---14-14-14---14-17--15-||-x--x----x--x--x-----x--x--x----x--x--x--||-12-12---12-12-12---12-12-12---12-15--13-||-----------------------------------------|
|----------------------------------------||----------------------------------------||-14-14---14-14-14---14-14-14---14-14-10-||-x--x----x--x--x----x--x--x----x--x--x--||-12-12---12-12-12---12-12-12---12-12-8--||----------------------------------------|
|-------------------------------------||-------------------------------------||-15-15---15-15-15---15-15-15---15-10-||-x--x----x--x--x----x--x--x----x--x--||-13-13---13-13-13---13-13-13---13-8--||-------------------------------------|
|----------------------------------------------||----------------------------------------------||--12-12---12-12-12---12-12-12---12-15--14--10~||--x--x----x--x--x----x--x--x----x--x----x--x--||--10-10---10-10-10---10-10-10---10-13--12--8~-||----------------------------------------------|
|----------------------------||----------------------------||-14~----17~----15-14-----10-||-x------x------x--x------x--| Repeat x2|-12~----15~----13-12-----8--||----------------------------|
This is the crazy fast part (dont know what to call it)|---------------------------------------||---------------------------------------||---------------------------------------||-10-/12-12-12---10-/12-12-12-7-7-7-7---| Repeat x3|-10-/12-12-12---10-/12-12-12-7-7-7-7---||-10-/12-12-12---10-/12-12-12-7-7-7-7---|
|---------------------------------||---------------------------------||---------------------------------||-8-8-8-8-8-8-8-8-8-8-8-8-8-8-8-8-||-8-8-8-8-8-8-8-8-8-8-8-8-8-8-8-8-||-8-8-8-8-8-8-8-8-8-8-8-8-8-8-8-8-|
(Breakdown)|--------------------------------||--------------------------------||--------------------------------||-12--10--12--x-x--77--7--88--8--| Repeat x3|-12--10--12--x-x--77--7--88--8--||-12--10--12--x-x--77--7--88--8--|
|----------------------------||----------------------------||----------------------------||-12-12-12-12-12-12-12-12-12-||-12-12-12-12-12-12-12-12-12-||-12-12-12-12-12-12-12-12-12-|
|-------------------------||-------------------------||-------------------------||-12---12-12-12---7-7---8-| Play x16 all together, after each 3rd time play "Riff 1"|-12---12-12-12---7-7---8-||-12---12-12-12---7-7---8-|
(Riff 1)|-------------||-------------||-------------||-10-10---12--||-x--x----x---||-8--8----10--|
This is the part after the bass break|--------------------------------------||--------------------------------------||--------------------------------10-10-||-12-12---12-12-12---12-8-8---8-10-10--| Repeat x4|-12-12---12-12-12---12-8-8---8-8--8---||-12-12---12-12-12---12-8-8---8--------|
This part is really quiet so it might not be %100 accurate|----------||----------||---10~----||-8~-------|Let this ring for a few measures...|----------||----------|
|-10------------||----------8~---||-----10--------||---------------|Let this ring...|---------------||---------------|
|---------------------------------||-11-10--------8~-----------------||-------10~-----------10~-------9~||---------------------------------||---------------------------------||---------------------------------|
|-------------------||-------------------||-----------3-------||-7----3----3----5--||-7----3----1----5--||-7----3---------5--|
|---------------------------------||---------------------------------||-----------------3-3-3-3---------||-7-7-7-7-3-3-3-3-3-3-3-3-5-5-5-5-||-7-7-7-7-3-3-3-3-1-1-1-1-5-5-5-5-||-7-7-7-7-3-3-3-3---------5-5-5-5-|
|-----------------------------------||-----------------------------------||-----------------------------------||-10-/12-12-12--10/12-12-12-7-7-7-7-|Repeat x3|-10-/12-12-12--10/12-12-12-7-7-7-7-||-10-/12-12-12--10/12-12-12-7-7-7-7-|
|-------------------------------||-------------------------------||-------------------------------||-8-8-8-8-8-8-8-8-8-8-8-8-8-8-8-||-8-8-8-8-8-8-8-8-8-8-8-8-8-8-8-||-8-8-8-8-8-8-8-8-8-8-8-8-8-8-8-|
|-------------------||-------------------||-------------------||-10---12---10---12-||-10---12---10---12-||-10---12---10---12-|
Thats it. It should be mostly accurate. Sorry i didnt know what to call each part, this has so many parts. Enjoy
Tap to rate this tab
 
# A B C D E F G H I J K L M N O P Q R S T U V W X Y Z