Strokes - Vision Of Division tab version 2

Guitar 1

Intro:

----------------------------------------------|----------------------------------------------|----------------------------------------------|-----12----------12----------12---------------|--14----14-12-12----12-11-11----11-9-9-11-7/--|--0--0--0--0--0--0--0--0--0--0--0--0-0-0--0---|
--16--15--14--16--15--14--|--17--15--16--17--15--16--|--16--16--16--16--16--16--|--------------------------|--------------------------|--------------------------|
--12--10--10--12--10--10--|--12--12--11--12--12--11--|--13--12--10--13--12--10--|--------------------------|--------------------------|--------------------------|
--11--12--12--|--11--13--12--|--12--12--12--|--------------|--------------|--------------|
Verse:
--------10101010101010101212--|--12----11111111111111111212--|--9-----10101010101010101212--|------------------------------|------------------------------|------------------------------|
--11--12--12--|--11--13--12--|--12--12--12--|--------------|--------------|--------------|
Pre-Chorus:
(w/Delay)--10------------10------------10------------10-------------|-----10-----10------10-----10-----12----12------12-----12--|--------11---------------11----------12-------------12-----|-----------------------------------------------------------|-----------------------------------------------------------|-----------------------------------------------------------|
--10--------8--------7-----5-----------5----|-----------------------------7---8----------|-----9---------9--------9------7-----7---7--|--------10-------10-------------------------|--------------------------------------------|--------------------------------------------|
--3-3-3-3-3-3-3-3--3-3-3-3-3-3-3-3---3-3-3-3-3-3-3-3---5-5-5-3-3-2-2--|--5-5-5-5-5-5-5-5--5-5-5-5-5-5-5-5---5-5-5-5-5-5-5-5---4-4-4-4-4-4-4--|--4-4-4-4-4-4-4-4--5-5-5-5-5-5-5-5---4-4-4-4-4-4-4-4---4-4-4-4-4-4-4--|----------------------------------------------------------------------|----------------------------------------------------------------------|----------------------------------------------------------------------|
--3-3-3-3-3-3-3-3-3-3-3-3---5-5-5-5-5-5-5-5-5-5-5-5--|--5-5-5-5-5-5-5-5-5-5-5-5---5-5-5-5-5-5-5-5-5-5-5-5--|--5-5-5-5-5-5-5-5-5-5-5-5---5-5-5-5-5-5-5-5-5-5-5-5--|-----------------------------------------------------|-----------------------------------------------------|-----------------------------------------------------|
--7-7-7-7-7-7-7-7-7-7-7---5-5-5-5-5-5-5-5-5-5-5-5--|--8-8-8-8-8-8-8-8-8-8-8---7-7-7-7-7-7-7-7-7-7-7-7--|--7-7-7-7-7-7-7-7-7-7-7---5-5-5-5-5-5-5-5-5-5-5-5--|---------------------------------------------------|---------------------------------------------------|---------------------------------------------------|
Chorus:
--16--15--14--16--15--14--|--17--15--16--17--15--16--|--16--16--16--16--16--16--|--------------------------|--------------------------|--------------------------|
--12--10--10--12--10--10--|--12--12--11--12--12--11--|--13--12--10--13--12--10--|--------------------------|--------------------------|--------------------------|
--11--12--12--|--11--13--12--|--12--12--12--|--------------|--------------|--------------|
Solo:
--x-x-x--x--x-----x-x-x--x--x----x-x-x--x--x----4--4--4--4--4--4--4--4--4-4--|--x-x-x--x--x-----x-x-x--x--x----x-x-x--x--x----5--5--5--5--5--5--5--5--5--5--|--x-x-x--x--x-----x-x-x--x--x----x-x-x--x--x----4--4--4--4--4--4--4--4--4--4--|--x-x-x--x--x-----x-x-x--x--x----x-x-x--x--x----------------------------------|--x-x-x--x--x-----x-x-x--x--x----x-x-x--x--x----------------------------------|--x-x-x--x--x-----x-x-x--x--x----x-x-x--x--x----------------------------------|
Outro:
---------------------------------------------|---------------------------------------------|---------------------------------------------|----12----------12----------12---------------|-14----14-12-12----12-11-11----11-9-9-11-7/--|-0--0--0--0--0--0--0--0--0--0--0--0-0-0--0---|
--------------------------------------------------------------------------------- Guitar 2 Intro:
--12----------------------------|--15^^^^^^^^^^^^^^^^^^^^^^^^^^--|--------------------------------|--------------------------------|--------------------------------|--------------------------------|
--------------------------------------------------------------------------|---------------------------------------------x-x-x-x----------------------|--9-9-9-9-9-9-9-9--12-12-12--12-12-12--9-9-9-x-x-x-x---12-12-12--12-12-12-|--9-9-9-9-9-9-9-9--12-12-12--12-12-12--9-9-9-x-x-x-x---12-12-12--12-12-12-|--7-7-7-7-7-7-7-7--10-10-10--8--8--8---7-7-7-x-x-x-x---10-10-10--8--8--8--|--------------------------------------------------------------------------|
----------------------------------------------------------------------------|--------x-x-x-x------------------------x---x---x---x-x----------------------|--9-9-9-x-x-x-x----12-12-12--15-15-15--x-9-x-9-x-9-x-x--12-12-12--15-15-15--|--9-9-9-x-x-x-x----12-12-12--15-15-15--x-9-x-9-x-9-x-x--12-12-12--15-15-15--|--7-7-7-x-x-x-x----10-10-10--13-13-13--x-7-x-7-x-7-x-x--10-10-10--13-13-13--|----------------------------------------------------------------------------|
--------------------------------------------|--------------------------------------------|--------------------------------------------|--13-13-13-13-13-13-13-13--9-9-9-9-9-9-9-9--|--13-13-13-13-13-13-13-13--9-9-9-9-9-9-9-9--|--11-11-11-11-11-11-11-11--8-8-8-8-8-8-8-8--|
Bridge:
--------------------------------------------------------|--8-8----8-8--8--8-----8--8---8-8----8-8--7--7----7--7--|--9-9----9-9--9--9-----9--9---9-9----9-9--8--8----8--8--|--9-9----9-9--10-10----10-10--9-9----9-9--9--9----9--9--|--------------------------------------------------------|--------------------------------------------------------|
----------------------------------------------------|--8--8--------------8--8---10-10-------------10-10--|--9--9--------------9--9---9--9--------------9--9---|--10-10-------------10-10--10-10-------------10-10--|----------------------------------------------------|----------------------------------------------------|
----------------------------------------------|--12-12-------12-12--------10-10-------10-10--|--12-12-------12-12--------11-11-------11-11--|--12-12-------12-12--------10-10-------10-10--|----------------------------------------------|----------------------------------------------|
Chorus:
--------------------------------------------------------------------------|---------------------------------------------x-x-x-x----------------------|--9-9-9-9-9-9-9-9--12-12-12--12-12-12--9-9-9-x-x-x-x---12-12-12--12-12-12-|--9-9-9-9-9-9-9-9--12-12-12--12-12-12--9-9-9-x-x-x-x---12-12-12--12-12-12-|--7-7-7-7-7-7-7-7--10-10-10--8--8--8---7-7-7-x-x-x-x---10-10-10--8--8--8--|--------------------------------------------------------------------------|
----------------------------------------------------------------------------|--------x-x-x-x------------------------x---x---x---x-x----------------------|--9-9-9-x-x-x-x----12-12-12--15-15-15--x-9-x-9-x-9-x-x--12-12-12--15-15-15--|--9-9-9-x-x-x-x----12-12-12--15-15-15--x-9-x-9-x-9-x-x--12-12-12--15-15-15--|--7-7-7-x-x-x-x----10-10-10--13-13-13--x-7-x-7-x-7-x-x--10-10-10--13-13-13--|----------------------------------------------------------------------------|
--------------------------------------------|--------------------------------------------|--------------------------------------------|--13-13-13-13-13-13-13-13--9-9-9-9-9-9-9-9--|--13-13-13-13-13-13-13-13--9-9-9-9-9-9-9-9--|--11-11-11-11-11-11-11-11--8-8-8-8-8-8-8-8--|
Solo:
--------------------------------------------------|-------9-10-12-10-9------------9-10-12-10-9-------|--9-10--------------10-9--9-10--------------10-9--|--------------------------------------------------|--------------------------------------------------|--------------------------------------------------|
--7p0-7-8-7p0-5-0-7p0-7-8-7p0-5-0--7p0-7-8-7p0-5-0-7p0-7-8-7p0-5-0--10-10-10--|--------------------------------------------------------------------9--9--9---|------------------------------------------------------------------------------|------------------------------------------------------------------------------|------------------------------------------------------------------------------|------------------------------------------------------------------------------|
--12p0-10-12-10p0-8-10-8p0-7-8-7p0-5-------------------7-7-7-7-7-7-7-7-|---------------------------------------5-5-5-5-5-5-5-5-5-5-5-5-5-5-5-5-|-----------------------------------------------------------------------|-----------------------------------------------------------------------|-----------------------------------------------------------------------|-----------------------------------------------------------------------|
--8p0-7-8-7p0--5-7-5p0--4-5/7-0h1-4--0-0-0-0-0-0-0-0-0-0-0-0-0-0-0-0--|----------------------------------------------------------------------|----------------------------------------------------------------------|----------------------------------------------------------------------|----------------------------------------------------------------------|----------------------------------------------------------------------|
--7p0-4p0-5p0-2p0-8p0-5p0-7p0-4p0--|-----------------------------------|-----------------------------------|-----------------------------------|-----------------------------------|-----------------------------------|
--7p0-4p0-5p0-2p0-12-12-12----7----8-7--/15-14--12-11--|------------------12-12-12--8---8b---------------------|-------------------------------------------------------|-------------------------------------------------------|-------------------------------------------------------|-------------------------------------------------------|
--8-7--6-5-3-0----1--3--1-----1--3--1-----|---------------------------4-----------1--|------------------------------------------|------------------------------------------|------------------------------------------|------------------------------------------|
Outro:
--12----------------------------------------|--15^^^^^^^^^^^^^^^^^^^^^^^^^^15--15-13-12--|--------------------------------------------|--------------------------------------------|--------------------------------------------|--------------------------------------------|
--------------------------------------------------------------------------------- Bass Intro:
---------------------------------------|---------------------------------------|---7-------7-----7------7------7-7-----| ------7-10---7-10--7-10---7-10-----10--|
-------------------------------------------|-------------------------------------------|--7-7-7-7-7-7-7-7/10-10-10-10/14-14-14-14--|-------------------------------------------|
-------------------------------------------|-------------------------------------------|--7-7-7-7-7-7-7-7/10-10-10-10/13-13-13-13--|-------------------------------------------|
---------------------------------------------|---------------------------------------------|------------------------------------------7--|--11-11-11-11-11-11-11-11-8-8-8-8-8-8-8-8----|
Verse:
-------------------------------------------|-------------------------------------------|--7-7-7-7-7-7-7-7/10-10-10-10/14-14-14-14--|-------------------------------------------|
---------------------------------------------|---------------------------------------------|------------------------------------------7--|--11-11-11-11-11-11-11-11-8-8-8-8-8-8-8-8----|
------------------------------------------------------------------------------------|------------------------------------------------------------------------------------|--9-9-9-9-9-9-9-9-10-10-10-10-10-10-10-10-------------------------------------------|------------------------------------------8-8-8-8-8-8-8-8--10-10-10-10-10-10-10-10--|
Chorus:
-------------------------------------------------------------------|-------------------------------------------------------------------|--7-7-7-7-7-7-7-7--------------------------------------------------|------------------8-8-8-8-8-8-8-8-7-7-7-7-7-7-7-7-7-7-7-7-7-7-7-7--|
-----------------------------------------------------------------------------------------|-----------------------------------------------------------------------------------------|------------------12-12-12-12-12-12-12-12-10-10-10-10-10-10-10-10-9-9-9-9-9-9-9-9-5-6-7--|--8-8-8-8-8-8-8-8------------------------------------------------------------------------|
Solo:
-------------------------------------------|-------------------------------------------|---7-7-7-7-7-7-7-7-7----7-7-7-7-7-7-7-7-7--|-------------------------------------------|
---------------------------------------|---------------------------------------|---7-------7-----7------7------7-7-----|------7-10---7-10--7-10---7-10-----10--|
-------------------------------------------|-------------------------------------------|--7-7-7-7-7-7-7-7/10-10-10-10/14-14-14-14--|-------------------------------------------|
-------------------------------------------|-------------------------------------------|--7-7-7-7-7-7-7-7/10-10-10-10/13-13-13-13--|-------------------------------------------|
---------------------------------------------|---------------------------------------------|------------------------------------------7--|--11-11-11-11-11-11-11-11-8-8-8-8-8-8-8-8----|
Outro:
---------------------------------------|---------------------------------------|---7-------7-----7------7------7-7-----|------7-10---7-10--7-10---7-10-----10--|
Por Santiago Luca.
Tap to rate this tab
 
# A B C D E F G H I J K L M N O P Q R S T U V W X Y Z