Strokes - Juice Box tab

Band:  The Strokes
Album: First Impressions of Earth
Song:  Juice Box
Copyright (c)  (RCA Records) (2005)
Transcribed By: Cameron Hustis
Email:          Wavejet@aol.com

Guitar 1 - Albert Hammond
Guitar 2 - Nick Valensi

Introguitar 18x (palm mute)|-----------------||-----------------||-----------------||-----------------||---------1-0-----||-0-0-3-0-----3-1-|
Pre-Verseguitar 24x|------------------------------||------------------------------||-9-9--7-9-9--9-7-7--7-3-3-7-7-||-9-9--7-9-9--9-7-7--7-3-3-7-7-||-7-7--5-7-7--7-5-5--5-1-1-5-5-||------------------------------|
|
|guitar 1|------------------------------||------------------------------||------------------------------||------------------------------||----------------1---0---------||-0---0---3---0---------3---1--|
verse8x (palm mute for only 7 measures)|-----------------||-----------------||-----------------||-----------------||---------1-0-----||-0-0-3-0-----3-1-|
guitar 24x|------------------------------||------------------------------||-9-9--7-9-9--9-7-7--7-3-3-7-7-||-9-9--7-9-9--9-7-7--7-3-3-7-7-||-7-7--5-7-7--7-5-5--5-1-1-5-5-||------------------------------|
|
|guitar 1|------------------------------||------------------------------||------------------------------||------------------------------||----------------1---0---------||-0---0---3---0---------3---1--|
pre-chorus guitar 2
|----------------|----------------|----------------|----------------||-3--3-----------|-3--3-----------|-3--3-----------|-3--3-----------||-3--3-----------|-3--3-----------|-3--3-----------|-3--3-----------||-3--3-----------|-3--3-----------|-3--3-----------|-3--3-----------||-1--1----------0|-1--1---------0-|-1--1----------0|-1--1--------0-1||-------1-0-1-3--|-------1-0-1-3--|-------1-0-1-3--|-------0-1-3----|
|
|guitar 1|-10-------------|-8--------------|-6--------------|-5--------------||-11-------------|-10-------------|-8--------------|-6--------------||----------------|----------------|----------------|----------------||----------------|----------------|----------------|----------------||----------------|----------------|----------------|----------------||----------------|----------------|----------------|----------------|
|----------------|----------------|----------------|----------------||-5--5-----------|-5--5-----------|-5--5-----------|-5--5-----------||-5--5-----------|-5--5-----------|-5--5-----------|-5--5-----------||-5--5-----------|-5--5-----------|-5--5-----------|-5--5-----------||-3--3-------0-1-|-3--3-------0-1-|-3--3-------0-1-|-3--3---------0-||------0-1-3-----|------0-1-3-----|------0-1-3-----|------1-0-1-3---|
| |
|-3--------------|-5--------------|-6--------------|-8--------------||-5--------------|-6--------------|-8--------------|-10-------------||----------------|----------------|----------------|----------------||----------------|----------------|----------------|----------------||----------------|----------------|----------------|----------------||----------------|----------------|----------------|----------------|
chorusguitar 2|-----------------------||-----------------------||-3---3--3--3--3--------||-3---3--3--3--3--------||-1---1--1--1--1--------||-----------------0--1--|
|
|guitar 1|-10--10-10-10-10-10-10-||-11--11-11-11-11-11-11-||-10--10-10-10-10-10-10-||-----------------------||-----------------------||-----------------------|
|-----------------------||-----------------------||-2---2--2--2--2--------||-3---3--3--3--3--------||-0---0--0--0--0--------||-----------------0--1--|
| |
|-10--10-10-10-10-10-10-||-10--10-10-10-10-10-10-||-10--10-10-10-10-10-10-||-----------------------||-----------------------||-----------------------|
|-----------------------||-----------------------||-3---3--3--3--3--3-----||-3---3--3--3--3--3-----||-----------------------||-3---3--3--3--3--3--0--|
| |
|-10--10-10-10-10-10-10-||-11--11-11-11-11-11-11-||-10--10-10-10-10-10-10-||-----------------------||-----------------------||-----------------------|
|-----------------------||-----------------------||-2---2--2--2--2--2--2--||-3---3--3--3--3--3--3--||-3---3--3--3--3--3--3--||-1---1--1--1--1--1--1--|
| |
|-10--10-10-10-10-10-10-||-10--10-10-10-10-10-10-||-10--10-10-10-10-10-10-||-----------------------||-----------------------||-----------------------|
Solo
(hold for 2 measures w/ fast tremolo)|----------------------||-12-------------------||-12-------------------||----------------------||----------------------||----------------------|
4x|----------------------||----------------------||-12h14p12--12h14p12---||---------14--------14-||----------------------||----------------------|
|-------12-------12-------12-------12-||----12-------12-------12-------12----||-15-------15-------15-------15-------||-------------------------------------||-------------------------------------||-------------------------------------|
|-------------------------------17/---||----------12-----------14------------||-14-12----12-----------14------------||-------14----------------------------||-------------------------------------||-------------------------------------|
(without tremolo)|-------------------------------------------------||-15-15-------------------14-14-------------------||-------12----15-14-12----------12----15-14-12----||----------14----------14----------14----------14-||-------------------------------------------------||-------------------------------------------------|
|
|(Alberts guitar is turned down really low for this part)|------------------------|------------------------||------------------------|------------------------||------------------------|------------------------||------------------------|------------------------||------------------------|------------------------||-0----------------------|-3----------------------|
|-------------------------------------------------||-13----------------------12----------------------||-------12----15-14-12----------12----15-14-12----||----14----14----------14----14----14----------14-||-------------------------------------------------||-------------------------------------------------|
| |
|------------------------|------------------------||------------------------|------------------------||------------------------|------------------------||------------------------|------------------------||------------------------|------------------------||-5----------------------|-7----------------------|
|--------------------------------------------------||-15-15--------------------14----------------------||-------12----15-14-12-----------12----15-14-12----||----------14----------14-----14----14----------14-||--------------------------------------------------||--------------------------------------------------|
| |
|------------------------|------------------------||------------------------|------------------------||------------------------|------------------------||------------------------|------------------------||------------------------|------------------------||-0----------------------|-3----------------------|
|----------------------------------12-------------------||----------------12-------15-12-------15-12----------12-||----12-14p12-------14-12-------14----------14-12----12-||-14----------14----------------------------------14----||-------------------------------------------------------||-------------------------------------------------------|
| |
|-------------------------------------------------------||-------------------------------------------------------||-------------------------------------------------------||-------------------------------------------------------||-------------------------------------------------------||-12----10--12--12----12--10--10-----10--6--6--10--10---|
After the solo it's Verse, Pre-Chorus, Chorus/Outro which is...
guitar 2|-----------------------||-----------------------||-3---3--3--3--3--------||-3---3--3--3--3--------||-1---1--1--1--1--------||-----------------0--1--|
|
|guitar 1|-10--10-10-10-10-10-10-||-11--11-11-11-11-11-11-||-10--10-10-10-10-10-10-||-----------------------||-----------------------||-----------------------|
|-----------------------||-----------------------||-2---2--2--2--2--------||-3---3--3--3--3--------||-0---0--0--0--0--------||-----------------0--1--|
| |
|-10--10-10-10-10-10-10-||-10--10-10-10-10-10-10-||-10--10-10-10-10-10-10-||-----------------------||-----------------------||-----------------------|
|-----------------------||-----------------------||-3---3--3--3--3--3-----||-3---3--3--3--3--3-----||-----------------------||-3---3--3--3--3--3--0--|
| |
|-10--10-10-10-10-10-10-||-11--11-11-11-11-11-11-||-10--10-10-10-10-10-10-||-----------------------||-----------------------||-----------------------|
|-----------------------||-----------------------||-2---2--2--2--2--2--2--||-3---3--3--3--3--3--3--||-3---3--3--3--3--3--3--||-1---1--1--1--1--1--1--|
| |
|-10--10-10-10-10-10-10-||-10--10-10-10-10-10-10-||-10--10-10-10-10-10-10-||-----------------------||-----------------------||-----------------------|
4x|-----------------------||-6--6-6--x-x-x-x-------||-7--7-7--x-x-x-x-------||-7--7-7--x-x-x-x-------||-5--5-5--x-x-x-x-------||-----------------------|
| |
|-----------------------||-6--6-6----------------||-7--7-7----------------||-7--7-7----------------||-5--5-5----------------||-----------------------|
|-----------------------||-----------------------||-3---3--3--3--3--------||-3---3--3--3--3--------||-1---1--1--1--1--------||-----------------0--1--|
| |
|-10--10-10-10-10-10-10-||-11--11-11-11-11-11-11-||-10--10-10-10-10-10-10-||-----------------------||-----------------------||-----------------------|
|-----------------------||-----------------------||-2---2--2--2--2--------||-3---3--3--3--3--------||-0---0--0--0--0--------||-----------------0--1--|
| |
|-10--10-10-10-10-10-10-||-10--10-10-10-10-10-10-||-10--10-10-10-10-10-10-||-----------------------||-----------------------||-----------------------|
|-----------------------||-----------------------||-3---3--3--3--3--3-----||-3---3--3--3--3--3-----||-----------------------||-3---3--3--3--3--3--0--|
| |
|-10--10-10-10-10-10-10-||-11--11-11-11-11-11-11-||-10--10-10-10-10-10-10-||-----------------------||-----------------------||-----------------------|
|-----------------------||-----------------------||-2---2--2--2--2--2--2--||-3---3--3--3--3--3--3--||-3---3--3--3--3--3--3--||-1---1--1--1--1--1--1--|
| |
|-10--10-10-10-10-10-10-||-10--10-10-10-10-10-10-||-10--10-10-10-10-10-10-||-----------------------||-----------------------||-----------------------|
4x|-----------------------||-6---6--6--x--x--x--x--||-7---7--7--x--x--x--x--||-7---7--7--x--x--x--x--||-5---5--5--x--x--x--x--||-----------------------|
| |
|-----------------------||-6---6--6--------------||-7---7--7--------------||-7---7--7--------------||-5---5--5--------------||-----------------------|
|
|(third guitar part which was probably done by Nick)|-----------------------||-----------------------||-----------------------||-0---0--0--0--7--5-----||--------------------8--||-----------------------|
|-----------------------||-----------------------||-3---3--3--3--3--------||-3---3--3--3--3--------||-1---1--1--1--1--------||-----------------0--1--|
| |
|-10--10-10-10-10-10-10-||-11--11-11-11-11-11-11-||-10--10-10-10-10-10-10-||-----------------------||-----------------------||-----------------------|
| |
|-----------------------||-----------------------||-----------------------||-----------------------||-5---------------------||-----------------------|
|-----------------------||-----------------------||-2---2--2--2--2--------||-3---3--3--3--3--------||-0---0--0--0--0--------||-----------------0--1--|
| |
|-10--10-10-10-10-10-10-||-10--10-10-10-10-10-10-||-10--10-10-10-10-10-10-||-----------------------||-----------------------||-----------------------|
| |
|-----------------------||-----------------------||-----------------------||-----------------------||-7---------------------||-----------------------|
|-----------------------||-----------------------||-3---3--3--3--3--3-----||-3---3--3--3--3--3-----||-----------------------||-3---3--3--3--3--3--0--|
| |
|-10--10-10-10-10-10-10-||-11--11-11-11-11-11-11-||-10--10-10-10-10-10-10-||-----------------------||-----------------------||-----------------------|
| |
|-----------------------||-----------------------||-----------------------||-----------------------||-8---------------------||-----------------------|
|-----------------------||-----------------------||-2---2--2--2--2--2--2--||-3---3--3--3--3--3--3--||-3---3--3--3--3--3--3--||-1---1--1--1--1--1--1--|
| |
|-10--10-10-10-10-10-10-||-10--10-10-10-10-10-10-||-10--10-10-10-10-10-10-||-----------------------||-----------------------||-----------------------|
3x|-----------------------||-6---6--6--x--x--x--x--||-7---7--7--x--x--x--x--||-7---7--7--x--x--x--x--||-5---5--5--x--x--x--x--||-----------------------|
| |
|-----------------------||-6---6--6--------------||-7---7--7--------------||-7---7--7--------------||-5---5--5--------------||-----------------------|
| |
|-----------------------||-----------------------||-----------------------||-0---0--0--0--7--5-----||--------------------8--||-----------------------|
|-----------------------||-6---6--6--------------||-7---7--7--------------||-7---7--7--------------||-5---5--5--------------||-----------------------|
| |
|-----------------------||-6---6--6--------------||-7---7--7--------------||-7---7--7--------------||-5---5--5--------------||-----------------------|
Tap to rate this tab
 
# A B C D E F G H I J K L M N O P Q R S T U V W X Y Z