Strokes - Killing Lies tab

Band:  The Strokes
Album: First Impressions of Earth
Song:  Killing Lies
Copyright (c)  (RCA Records) (2005)
Transcribed By: Cameron Hustis
Email:          Wavejet@aol.com



Guitar 1 - Nick Valensi
Guitar 2 - Albert Hammond



Intro

Guitar 1|---------------|---------------|---------------|---------------||---------------|---------------|---------------|---------------||-6--6-6--6-6-6-|-8--8-8--8-8-8-|-6--6-6--6-6-6-|-8--8-8--8-8-8-||-8--8-8--8-8-8-|-9--9-9--9-9-9-|-8--8-8--8-8-8-|-9--9-9--9-9-9-||---------------|---------------|---------------|---------------||---------------|---------------|---------------|---------------|
|
|Guitar 2|---------------|---------------|---------------|---------------||---------------|---------------|---------------|---------------||-6--6-6--6-6-6-|-8--8-8--8-8-8-|-8--8-8--8-8-8-|-4--4-4--4-4-4-||-8--8-8--8-8-8-|-9--9-9--9-9-9-|-9--9-9--9-9-9-|-6--6-6--6-6-6-||---------------|---------------|---------------|---------------||---------------|---------------|---------------|---------------|
Verse 1
|---------------|---------------|---------------||---------------|---------------|---------------||-6--6-6--6-6-6-|-8--8-8--8-8-8-|-8--8-8--8-8-8-||-8--8-8--8-8-8-|-9--9-9--9-9-9-|-9--9-9--9-9-9-||---------------|---------------|---------------||---------------|---------------|---------------|
| |
|---------------|---------------|---------------||---------------|---------------|---------------||-6--6-6--6-6-6-|-8--8-8--8-8-8-|-8--8-8--8-8-8-||-8--8-8--8-8-8-|-9--9-9--9-9-9-|-9--9-9--9-9-9-||---------------|---------------|---------------||---------------|---------------|---------------|
|---------------|---------------|---------------||---------------|---------------|---------------||-1--1-1--1-1-1-|-3--3-3--3-3-3-|-3--3-3--3-3-3-||-3--3-3--3-3-3-|-4--4-4--4-4-4-|-4--4-4--4-4-4-||---------------|---------------|---------------||---------------|---------------|---------------|
| |
|---------------|---------------|---------------||---------------|---------------|---------------||-1--1-1--1-1-1-|-3--3-3--3-3-3-|-3--3-3--3-3-3-||-3--3-3--3-3-3-|-4--4-4--4-4-4-|-4--4-4--4-4-4-||---------------|---------------|---------------||---------------|---------------|---------------|
2nd Part
|---------------|---------------|---------------||---------------|---------------|---------------||-6--6-6--6-6-6-|-8--8-8--8-8-8-|-8--8-8--8-8-8-||-8--8-8--8-8-8-|-9--9-9--9-9-9-|-9--9-9--9-9-9-||---------------|---------------|---------------||---------------|---------------|---------------|
| |
|-2--2-2--2-2-2-|-2--2-2--2-2-2-|-2--2-2--2-2-2-||-2--2-2--2-2-2-|-4--4-4--4-4-4-|-4--4-4--4-4-4-||-3--3-3--3-3-3-|-4--4-4--4-4-4-|-4--4-4--4-4-4-||---------------|---------------|---------------||---------------|---------------|---------------||---------------|---------------|---------------|
|---------------|---------------|---------------||---------------|---------------|---------------||-1--1-1--1-1-1-|-3--3-3--3-3-3-|-3--3-3--3-3-3-||-3--3-3--3-3-3-|-4--4-4--4-4-4-|-4--4-4--4-4-4-||---------------|---------------|---------------||---------------|---------------|---------------|
| |
|-1----1--------|-2----2----2-2-|-2----2----2-2-||-2--2-2--2-2-2-|-2--2-2--2-2-2-|-2--2-2--2-2-2-||----1----1-1-1-|----3----3-----|----3----3-----||---------------|---------------|---------------||---------------|---------------|---------------||---------------|---------------|---------------|
Chorus
|---------------|---------------|---------------||---------------|---------------|---------------||-6--6-6--6-6-6-|-8--8-8--8-8-8-|-8--8-8--8-8-8-||-8--8-8--8-8-8-|-9--9-9--9-9-9-|-9--9-9--9-9-9-||---------------|---------------|---------------||---------------|---------------|---------------|
|
|(Tremolo picking______________________________|-9-------------|-11----------------------------||-11------------|-12----------------------------||-11------------|-11----------------------------||---------------|-------------------------------||---------------|-------------------------------||---------------|-------------------------------|
|---------------|---------------|---------------||---------------|---------------|---------------||-1--1-1--1-1-1-|-3--3-3--3-3-3-|-3--3-3--3-3-3-||-3--3-3--3-3-3-|-4--4-4--4-4-4-|-4--4-4--4-4-4-||---------------|---------------|---------------||---------------|---------------|---------------|
|
|________________________________________________)|-9-------------|-9-----------------------------||-9-------------|-11----------------------------||-10------------|-11----------------------------||---------------|-------------------------------||---------------|-------------------------------||---------------|-------------------------------|
Interlude
|---------------|---------------|---------------||---------------|---------------|---------------||-6--6-6--6-6-6-|-8--8-8--8-8-8-|-8--8-8--8-8-8-||-8--8-8--8-8-8-|-9--9-9--9-9-9-|-9--9-9--9-9-9-||---------------|---------------|---------------||---------------|---------------|---------------|
| |
|-----2---------|---------------|---------------||---------------|----7----6--7--|-9---7---6---7-||-------1-3-1---|----6----6--6--|-6---6---6---6-||-------------4-|---------------|---------------||-4-------------|-2-------------|---------------||---2-----------|---------------|---------------|
|---------------|---------------|---------------||---------------|---------------|---------------||-1--1-1--1-1-1-|-3--3-3--3-3-3-|-3--3-3--3-3-3-||-3--3-3--3-3-3-|-4--4-4--4-4-4-|-4--4-4--4-4-4-||---------------|---------------|---------------||---------------|---------------|---------------|
| |
|-----9---------|---------------|---------------||---------------|---------------|---------------||-------1-3-1---|----6----5--6--|-8---6---5---6-||-------------4-|----6----6--6--|-6---6---6---6-||-8-------------|---------------|---------------||---9-----------|-2-------------|---------------|
2nd Interlude
(Tremolo picking______________________________|-9-------------|-11----------------------------||-11------------|-12----------------------------||-11------------|-11----------------------------||---------------|-------------------------------||---------------|-------------------------------||---------------|-------------------------------|
| |
|-----2---------|---------------|---------------||---------------|----7----6--7--|-9---7---6---7-||-------1-3-1---|----6----6--6--|-6---6---6---6-||-------------4-|---------------|---------------||-4-------------|-2-------------|---------------||---2-----------|---------------|---------------|
________________________________________________)|-9-------------|-9-----------------------------||-9-------------|-11----------------------------||-10------------|-11----------------------------||---------------|-------------------------------||---------------|-------------------------------||---------------|-------------------------------|
| |
|-----9---------|---------------|---------------||---------------|---------------|---------------||-------1-3-1---|----6----5--6--|-8---6---5---6-||-------------4-|----6----6--6--|-6---6---6---6-||-8-------------|---------------|---------------||---9-----------|-2-------------|---------------|
Outro
(Tremolo picking_______________________________|-9-------------|-9-----------------------------||-9-------------|-11----------------------------||-10------------|-11----------------------------||---------------|-------------------------------||---------------|-------------------------------||---------------|-------------------------------|
| |
|-----9---------|-9-------------|---------------||---------------|-11------------|---------------||-------1-3-1---|-11------------|---------------||-------------4-|---------------|---------------||-8-------------|---------------|---------------||---9-----------|---------------|---------------|
________________)|-9-------------|-------||-11------------|-------||-11------------|-11----||---------------|-11----||---------------|-9-----||---------------|-------|
| |
|-9-------------|-------||-11------------|-------||-11------------|-11----||-11------------|-11----||-9-------------|-9-----||---------------|-------|
Tap to rate this tab
 
# A B C D E F G H I J K L M N O P Q R S T U V W X Y Z