Strung Out - Velvet Alley tab

artist:strung out
song:velvet ally
submitted by:marcel


                  VELVET ALLY


-----------------------------------------------------|--6-.-.--6-.-.--6--5-.-.--5-.-.--5--6-.-.--6-.-.--.--| x3--7-7-7--7-7-7--7--5-5-5--5-5-5--5--3-3-3--3-3-3--3--|-----------------------------------------------------|-----------------------------------------------------|-----------------------------------------------------|
---------------------------------------|--6-.-.--6-.-.--6--5-.-.--5-.-.--5--6--|--7-7-7--7-7-7--7--5-5-5--5-5-5--5--3--|---------------------------------------|---------------------------------------|---------------------------------------|
------------------------------------------|-----------10-10-10-10--6-6-6-8--5-5-5-6--|--7-7-7-7---7--7--7--7--7-7-7-7--5-5-5-5--|--7-7-7-7---0--0--0--0--------------------|--5-5-5-5---------------------------------|------------------------------------------|
--------------------------------------|--------------------------------------|--7-7-7-7--3-3-3-3--5-5-5-5-----------|--7-7-7-7--3-3-3-3--5-5-5-5--/3-2b----|--5-5-5-5--1-1-1-1--3-3-3-3--------3--|--------------------------------------|
------------------------------------------|-----------10-10-10-10--6-6-6-8--5-5-5-6--|--7-7-7-7---7--7--7--7--7-7-7-7--5-5-5-5--|--7-7-7-7---0--0--0--0--------------------|--5-5-5-5---------------------------------|------------------------------------------|
--------------------------------------|--------------------------------------|--7-7-7-7--3-3-3-3--5-5-5-5--5-5-5-5--|--7-7-7-7--3-3-3-3--5-5-5-5--5-5-5-5--|--5-5-5-5--1-1-1-1--3-3-3-3--3-3-3-3--|--------------------------------------|
------------------------------------------|-----------10-10-10-10--6-6-6-8--5-5-5-6--|--7-7-7-7---7--7--7--7--7-7-7-7--5-5-5-5--|--7-7-7-7---0--0--0--0--------------------|--5-5-5-5---------------------------------|------------------------------------------|
--------------------------------------|--------------------------------------|--7-7-7-7--3-3-3-3--5-5-5-5--5-5-5-5--|--7-7-7-7--3-3-3-3--5-5-5-5--5-5-5-5--|--5-5-5-5--1-1-1-1--3-3-3-3--3-3-3-3--|--------------------------------------|
--------------------------------------------------------------------------|--------------------------------------------------------------------------|--3-3-3-3--3-3-3-3--7-7-7-7--7-7-7-7--5-5-5-5--5-5-5-5--5-5-5-5--5-5-5-5--|--3-3-3-3--3-3-3-3--7-7-7-7--7-7-7-7--5-5-5-5--5-5-5-5--5-5-5-5--5-5-5-5--|--1-1-1-1--1-1-1-1--5-5-5-5--5-5-5-5--3-3-3-3--3-3-3-3--3-3-3-3--3-3-3-3--|--------------------------------------------------------------------------|
--------------------------------------------------------------------------|--------------------------------------------------------------------------|--3-3-3-3--3-3-3-3--7-7-7-7--7-7-7-7--5-5-5-5--5-5-5-5--5-5-5-5--5-5-5-5--|--3-3-3-3--3-3-3-3--7-7-7-7--7-7-7-7--5-5-5-5--5-5-5-5--5-5-5-5--5-5-5-5--|--1-1-1-1--1-1-1-1--5-5-5-5--5-5-5-5--3-3-3-3--3-3-3-3--3-3-3-3--3-3-3-3--|--------------------------------------------------------------------------|
This bit isn't perfect but if you can play it fast it sweet---------------------------------------------------------------------------|---------------------------------------------------------------------------|--7-7---------------------------------------7-7----------------------------|--7-7--8p7p0-7p5p0-5p3p0-3p2p0-5p3p0-3p2p0--7-7--8p7p0-7p5p0-5p3p0-3p2p0---|--5-5---------------------------------------5-5----------------------------|---------------------------------------------------------------------------|
---------------------------------------------------------------------------|---------------------------------------------------------------------------|---------------------------------------------------------------------------|-5p3p0-3p2p0---------------------------------------------------------------|---------------------------------------------------------------------------|---------------------------------------------------------------------------|
----------------------------------------------------------------------------|----------------------------------------------------------------------------|--7-7---------------------------------------7-7---------------3------3------|--7-7--8p7p0-7p5p0-5p3p0-3p2p0-5p3p0-3p2p0--7-7--8p7p0-7p5p0--3-.-.--3-.-.--|--5-5---------------------------------------5-5---------------1-1-1--1-1-1--|----------------------------------------------------------------------------|
--------------------------------------------------------------------------|--------------------------------------------------------------------------|--7-7-7-7--7-7-7-7--5-5-5-5--5-5-5-5--3-3-3-3--3-3-3-3--3-3-3-3--3-3-3-3--|--7-7-7-7--7-7-7-7--5-5-5-5--5-5-5-5--3-3-3-3--3-3-3-3--3-3-3-3--3-3-3-3--|--5-5-5-5--5-5-5-5--3-3-3-3--3-3-3-3--1-1-1-1--1-1-1-1--1-1-1-1--1-1-1-1--|--------------------------------------------------------------------------|
-------------------------------------------------------------------------|-------------------------------------------------------------------------|--7-7-7-7--7-7-7-7--5-5-5-5--5-5-5-5--3-3-3-3--3-3-3-3----------.-.-.----|--7-7-7-7--7-7-7-7--5-5-5-5--5-5-5-5--3-3-3-3--3-3-3-3--.-.-.-.-3-2-0-.--|--5-5-5-5--5-5-5-5--3-3-3-3--3-3-3-3--1-1-1-1--1-1-1-1--1-0-1-3-------3--|-------------------------------------------------------------------------|
------------------------------------------|-----------10-10-10-10--6-6-6-8--5-5-5-6--|--7-7-7-7---7--7--7--7--7-7-7-7--5-5-5-5--|--7-7-7-7---0--0--0--0--------------------|--5-5-5-5---------------------------------|------------------------------------------|
--------------------------------------|--------------------------------------|--7-7-7-7--3-3-3-3--5-5-5-5--5-5-5-5--|--7-7-7-7--3-3-3-3--5-5-5-5--5-5-5-5--|--5-5-5-5--1-1-1-1--3-3-3-3--3-3-3-3--|--------------------------------------|
------------------------------------------|-----------10-10-10-10--6-6-6-8--5-5-5-6--|--7-7-7-7---7--7--7--7--7-7-7-7--5-5-5-5--|--7-7-7-7---0--0--0--0--------------------|--5-5-5-5---------------------------------|------------------------------------------|
--------------------------------------|--------------------------------------|--7-7-7-7--3-3-3-3--5-5-5-5--5-5-5-5--|--7-7-7-7--3-3-3-3--5-5-5-5--5-5-5-5--|--5-5-5-5--1-1-1-1--3-3-3-3--3-3-3-3--|--------------------------------------|
--------------------------------------------------------------------------|--------------------------------------------------------------------------|--3-3-3-3--3-3-3-3--7-7-7-7--7-7-7-7--5-5-5-5--5-5-5-5--5-5-5-5--5-5-5-5--|--3-3-3-3--3-3-3-3--7-7-7-7--7-7-7-7--5-5-5-5--5-5-5-5--5-5-5-5--5-5-5-5--|--1-1-1-1--1-1-1-1--5-5-5-5--5-5-5-5--3-3-3-3--3-3-3-3--3-3-3-3--3-3-3-3--|--------------------------------------------------------------------------|
--------------------------------------------------------------------------|--------------------------------------------------------------------------|--3-3-3-3--3-3-3-3--7-7-7-7--7-7-7-7--5-5-5-5--5-5-5-5--5-5-5-5--5-5-5-5--|--3-3-3-3--3-3-3-3--7-7-7-7--7-7-7-7--5-5-5-5--5-5-5-5--5-5-5-5--5-5-5-5--|--1-1-1-1--1-1-1-1--5-5-5-5--5-5-5-5--3-3-3-3--3-3-3-3--3-3-3-3--3-3-3-3--|--------------------------------------------------------------------------|
---------------------------------------------------------------------------|---------------------------------------------------------------------------|--7-7---------------------------------------7-7----------------------------|--7-7--8p7p0-7p5p0-5p3p0-3p2p0-5p3p0-3p2p0--7-7--8p7p0-7p5p0-5p3p0-3p2p0---|--5-5---------------------------------------5-5----------------------------|---------------------------------------------------------------------------|
---------------------------------------------------------------------------|---------------------------------------------------------------------------|---------------------------------------------------------------------------|-5p3p0-3p2p0---------------------------------------------------------------|---------------------------------------------------------------------------|---------------------------------------------------------------------------|
-----------------------------------------------------------------------------|-----------------------------------------------------------------------------|--7-7---------------------------5--7-7---------------------------------------|--7-7--8p7p0-7p5p0-5p3p0-3p2p0--5--7-7--8p7p0-7p5p0-5p3p0-3p2p0-5p3p0-3p2p0--|--5-5---------------------------3--5-5---------------------------------------|-----------------------------------------------------------------------------|
"..im goin nowhere..."---------------------------------------------------------------------------|---------------------------------------------------------------------------|--7-7-7-7--7-7-7-7--3-3-3-3--3-3-3-3--7-7-7-7--7-7-7-7--3-3-3-3--5-5-5-----|--7-7-7-7--7-7-7-7--3-3-3-3--3-3-3-3--7-7-7-7--7-7-7-7--3-3-3-3--5-5-5-----|--5-5-5-5--5-5-5-5--1-1-1-1--1-1-1-1--5-5-5-5--5-5-5-5--1-1-1-1--3-3-3-----|---------------------------------------------------------------------------|
--------------------------------------------------------------------------|--------------------------------------------------------------------------|--3-3-3-3--3-3-3-3--7-7-7-7--7-7-7-7--5-5-5-5--5-5-5-5--5-5-5-5--5-5-5-5--|--3-3-3-3--3-3-3-3--7-7-7-7--7-7-7-7--5-5-5-5--5-5-5-5--5-5-5-5--5-5-5-5--|--1-1-1-1--1-1-1-1--5-5-5-5--5-5-5-5--3-3-3-3--3-3-3-3--3-3-3-3--3-3-3-3--|--------------------------------------------------------------------------|
--------------------------------------------------------------------------|--------------------------------------------------------------------------|--3-3-3-3--3-3-3-3--7-7-7-7--7-7-7-7--5-5-5-5--5-5-5-5--5-5-5-5--5-5-5-5--|--3-3-3-3--3-3-3-3--7-7-7-7--7-7-7-7--5-5-5-5--5-5-5-5--5-5-5-5--5-5-5-5--|--1-1-1-1--1-1-1-1--5-5-5-5--5-5-5-5--3-3-3-3--3-3-3-3--3-3-3-3--3-3-3-3--|--------------------------------------------------------------------------|
--------------------------------------------------------------------------|--------------------------------------------------------------------------|--7-7---------------------------------------7-7---------------------------|--7-7--8p7p0-7p5p0-5p3p0-3p2p0-5p3p0-3p2p0--7-7--8p7p0-7p5p0-5p3p0-3p2p0--|--5-5---------------------------------------5-5---------------------------|--------------------------------------------------------------------------|
--------------------------------------------------------------------------|--------------------------------------------------------------------------|--------------------------------------------------------------------------|-5p3p0-3p2p0--------------------------------------------------------------|--------------------------------------------------------------------------|--------------------------------------------------------------------------|
Tap to rate this tab
 
# A B C D E F G H I J K L M N O P Q R S T U V W X Y Z