Suburban Legends – Powerful Game tab

Artist: Suburban Legends
Title: Powerful Game
Album: Rump Shaker
Written By: Brian Klemm
Tabbed By: Ian Spayer


Standard Tuning


Intro|-------------------------------------------------||-------------------------------------------------||----6-7-7------7-8-9-9---------------------------| x3|-7--6-7-7--8-8-7-8-9-9---------------------------||-7--4-5-5--8-8-5-6-7-7---------------------------||-5---------6-6-----------------------------------|
On Fourth Time|--------------5-0----6-3-----8-5------------||--------------------------------------------||----6--7----2------5------7-----------------||-6--6--7------------------------------------||-6--4--5------------------------------------||-4------------------------------------------|
Verse: It's not so easy...|-55--5-5-3-3-2-2----------------------------||-55--5-5-3-3-3-3----------------------------||-66--6-6-4-4-2-2----------------------------| x4|--------------------------------------------||--------------------------------------------||--------------------------------------------|
Pre Chorus: You better watch out...|-----------------------------------------------||-----------------------------------------------||-9-9----------77-------------------------------||-9-9-66--7-7--77-------------------------------||-7-7-66--7-7--55-------------------------------||-----44--5-5-----------------------------------|
|-----------------------------------------------||--------------88-7-----------------------------||-9-9----------99-7-----------------------------||-9-9-66--7-7-----------------------------------||-7-7-66--7-7-----------------------------------||-----44--5-5-----------------------------------|
|-----------------------------------------------||-----------------------------------------------||-9-9----------77-------------------------------||-9-9-66--7-7--77-------------------------------||-7-7-66--7-7--55-------------------------------||-----44--5-5-----------------------------------|
Oh yeah...|--------------------------------------------||--------------------------------------------||-6~--7~--9~---------------------------------||-6~--7~--9~---------------------------------||-4~--5~--7~---------------------------------||--------------------------------------------|
Chorus: It's just a powerful game...|-------------------------------------------------||-------------------------------------------------||----6-7-7------7-8-9-9---------------------------| x4|-7--6-7-7--8-8-7-8-9-9---------------------------||-7--4-5-5--8-8-5-6-7-7---------------------------||-5---------6-6-----------------------------------|
My...girl|--------------------------------------------||--------------------------------------------||--------------------------------------------||-7~--7--------------------------------------||-7~--7--------------------------------------||-5~--5--------------------------------------|
Verse 2: I look at...|--------------------------------------||--------------------------------------||--------------------------------------| x4|-7--7-----6666-5555-------------------||-7--7-----6666-5555-------------------||-5--5-----4444-3333-------------------|
Pre Chorus: You better watch out...|-----------------------------------------------||-----------------------------------------------||-9-9----------77-------------------------------||-9-9-66--7-7--77-------------------------------||-7-7-66--7-7--55-------------------------------||-----44--5-5-----------------------------------|
|-----------------------------------------------||--------------88-7-----------------------------||-9-9----------99-7-----------------------------||-9-9-66--7-7-----------------------------------||-7-7-66--7-7-----------------------------------||-----44--5-5-----------------------------------|
|-----------------------------------------------||-----------------------------------------------||-9-9----------77-------------------------------||-9-9-66--7-7--77-------------------------------||-7-7-66--7-7--55-------------------------------||-----44--5-5-----------------------------------|
Oh yeah...|--------------------------------------------||--------------------------------------------||-6~--7~--9~---------------------------------||-6~--7~--9~---------------------------------||-4~--5~--7~---------------------------------||--------------------------------------------|
Chorus: It's just a powerful game...|-------------------------------------------------||-------------------------------------------------||----6-7-7------7-8-9-9---------------------------| x2|-7--6-7-7--8-8-7-8-9-9---------------------------||-7--4-5-5--8-8-5-6-7-7---------------------------||-5---------6-6-----------------------------------|
|----------------9-7------------------------------||--------------------10-7-10----------------------||----6-7-7----------------------------------------||-7--6-7-7----------------------------------------||-7--4-5-5----------------------------------------||-5-----------------------------------------------|
|-------------------------------------------------||-------------------------------------------------||----6-7-7------7-8-9-9---------------------------||-7--6-7-7--8-8-7-8-9-9---------------------------||-7--4-5-5--8-8-5-6-7-7---------------------------||-5---------6-6-----------------------------------|
Bridge: Sarah likes to go for coffee|---------------------------------||---------------------------------||-7~--------------------4~-------6||-7~------7~-----4~-----4~-------6||-5~------7~-----4~-----2~-------4||---------5~-----2~---------------|
I never pay when i go shopping|---------------------------------||---------------------------------||-7~--------------------4~-------6||-7~------7~-----4~-----4~-------6||-5~------7~-----4~-----2~-------4||---------5~-----2~---------------|
If you can't see...|----------------------------------||----------------------------------||-7777777-----------------444444-66||-7777777-7777777-4444444-444444-66| X2|-5555555-7777777-4444444-222222-44||---------5555555-2222222----------|
|----------------------------------------------||----------------------------------------------||-7777777---------6666--7777--99999999---------||-7777777-7777777-6666--7777--99999999---------||-5555555-7777777-4444--5555--77777777---------||---------5555555------------------------------|
Drum Solo|--------------------------------------------||--------------------------------------------||-9~---9~---9~---9~--------------------------| x2|-9~---9~---9~---9~--------------------------||-7~---7~---7~---7~--------------------------||--------------------------------------------|
Lead Guitar riff|--------------------------------------------||--------------------------------------------||----6-9-6-----------------------------------| x4|--7---------------6-9-6-7-------------------||----------9----7----------------------------||--------------------------------------------|
Breakdown|-----------5--------------------------------||-------------8-7-5------5-------------------||-------------------7-5----5-----------------||-7~-------------------------7---------------||-7~-----------------------------------------||-5~-----------------------------------------|
Last Chorus: Just a powerful game...|-------------------------------------------------||-------------------------------------------------||----6-7-7------7-8-9-9---------------------------| x8|-7--6-7-7--8-8-7-8-9-9---------------------------||-7--4-5-5--8-8-5-6-7-7---------------------------||-5---------6-6-----------------------------------|
Guitar SOLO - last 4x of chorus|----------------------10-11-10-8-----||-/7-10-7-10-10-10p7--------------10--||--------------------9----------------||-------------------------------------||-------------------------------------||-------------------------------------|
|----------------9-10-12--9------||------10-----10------------10-7-||----9------9--------------------||-/7------7----------------------||--------------------------------||--------------------------------|
|----------------------10-9-----------||-/7-10-7-10-10-10p7--------10-7-10---||--------------------9----------------||-------------------------------------||-------------------------------------||-------------------------------------|
|---------------------------------------||-------------7--10---------------------||---------6-9--------7-7p6--7---6-------||---7-9-----------------------9---------||-9-------------------------------------||---------------------------------------|
Outro Rock!...Rock!...|--------------------------------------||--------------------------------------||----77--------------------------------| X3|-7--77--55--55------------------------||-7--55--55--55------------------------||-5------33--33------------------------|
|--------------------------------------||--------------------------------------||----77--------------------------------||-7--77--55----------------------------||-7--55--55----------------------------||-5------33----------------------------|
Please rate this tab:
x1.0