Suede - Animal Nitrate tab version 2

Song: Animal Nitrate                                  
Artist: Suede
Album: Suede
Tuning: Standard

Tabbed By: Indie Nation
  
E||-------------------|-------------------2-2-|--2-----2------0-----0------|B||-------------------|-------------------2-2-|--2--3--2------2--3--2--x-x-|G||-------------------|-------------------4-4-|--4--4--4--x-x-2--2--2--x-x-|D||-------------------|-------------------4-4-|--4--4--4--x-x-2--2--2--x-x-|A||-------------------|-------------------2-2-|--2--2--2--x-x-0--0--0------|E||-------------------|-------------------2-2-|--2--2--2--x-x--------------|
|--------x------------------|--2----------0--0--0------||--2--3--x--------3-5-3-0---|--3----3-----2--3--2--x-x-||--0--0--x--0---------------|-------------2--2--2--x-x-||--0--0--x--2---------------|-------------2--2--2--x-x-||--0--0-----2---------------|----------0--0--0--0------||--3--3-----0---------------|--------------------------|
|--------------------------|--2--2--2------0--0--0------||--2--0--------------------|--2--3--2------2--3--2--x-x-||--------2--0--------------|--4--4--4------2--2--2--x-x-||--------------4--2--0-----|--4--4--4------2--2--2--x-x-||-----------------------0--|--2--2--2--x-x-0--0--0------||--------------------------|--2--2--2--x-x--------------|
|--------0--0----------------|--2----2-----0--0--0-----|--------------0----0----||--2--3--0--0-----3-5-3p-0---|--3----3-----2--3--2-----|--2--0-----0--0----0----||--0--0--0--0----------------|-------------2--2--2--0--|--------2-----4----4----||--0--0--0--2----------------|-------------2--2--2-----|------------------------||--0--0-----2----------------|----------0--0--0--0-----|------------------------||--3--3-----0----------------|-------------------------|------------------------|
1st Verse |------------2---------5----|-----------------------------||------------3---------5----|-----------------------------||---------------------------|-----------------------------||---------------------------|------------------0-----0-0--||--2--------------0---------|-----------0--0-2---0-2---0--||---------------------------|--3--2--3--------------------|
|-------2---------5----|----------------------------|-------2---------5----||-------3---------5----|----------------------------|-------3---------5----||----------------------|-----------------------0-0--|--4-------------------||--4-------------------|------------------0--2-0-0--|--4-------------------||--2---------0---------|-----------0--0-2--------0--|--2---------0---------||----------------------|--3--2--3-------------------|----------------------|
|------------------------------|-------2---------5----|---------------------------||------------------------------|-------3---------5----|---------------------------||------------------------------|-------2--------------|---------------------------||------------------0-----0-----|--4-------------------|------------------------0--||-----------0--0-2---0-2---0-2-|--2---------0---------|--------------------0-2-0--||--3--2--3---------------------|----------------------|--3--2--3--2--3--2---------|
First Chorus |--------------------------------------||-----------------------------8--------||--------------------------------------||--7---------------7--8--8-9-----9--8--||--------------------------------------||--------------------------------------|
|---------------------------|-------------------------------||-----7-------------8--8----|-------------------------------||---------------------------|-------7--9--9br------7--------||--7-----7--8--8-9-----9----|--7h-9-------------------9--7--||---------------------------|-------------------------------||---------------------------|-------------------------------|
|------------------------------------|----------------------------||------------------------------------|-----7-------------8--------||-------7---7--------7---7---9p-7----|----------------------------||--7h-9---------7h-9--------------9--|--7-----7--8--8-9-----9--8--||------------------------------------|----------------------------||------------------------------------|----------------------------|
|---------------------------|-------------------------1--|---------------------||-----7-------------8--8----|--12----15----10--10-----1--|---------------------||----------------------7----|--11-----------9---9--9--2--|-----5---------------||--7-----7--8--8-9-----9----|--12----------11--11-----3--|-----5---------------||---------------------------|-------------------------3--|-----3---------------||---------------------------|-------------------------1--|---------------------|
2nd Verse |------------2---------5----|-------------------------------||------------3---------5----|-------------------------------||------------2--------------|-------------------------------||--4------------------------|-------------------0------0-0--||--2--------------0---------|-----------0--0h-2-0-0h-2-0-0--||---------------------------|--3--2--3----------------------|
|-------2---------5----|------------------------------|-------2---------5----||-------3---------5----|------------------------------|-------3---------5----||-------2--------------|-------------------------0----|----------------------||--4-------------------|-------------------0--2p-0----|--4-------------------||--2---------0---------|--------------0h-2---------0--|--2---------0---------||----------------------|--3--2--3--0------------------|----------------------|
|------------------------------|-------2---------5----|---------------------------||------------------------------|-------3---------5----|---------------------------||------------------------------|-------2--------------|---------------------------||------------------0-----0-----|--4-------------------|------------------------0--||-----------0--0-2---0-2---0-2-|--2---------0---------|--------------------0-2-0--||--3--2--3---------------------|----------------------|--3--2--3--2--3--2---------|
Second Chorus |--------------------------------------||-----------------------------8--------||--------------------------------------||--7---------------7--8--8-9-----9--8--||--------------------------------------||--------------------------------------|
|---------------------------|-------------------------------||-----7-------------8--8----|-------------------------------||---------------------------|-------7--9--9br------7--------||--7-----7--8--8-9-----9----|--7h-9-------------------9--7--||---------------------------|-------------------------------||---------------------------|-------------------------------|
|------------------------------------|----------------------------||------------------------------------|-----7-------------8--------||-------7---7--------7---7---9p-7----|----------------------------||--7h-9---------7h-9--------------9--|--7-----7--8--8-9-----9--8--||------------------------------------|----------------------------||------------------------------------|----------------------------|
|---------------------------|-------------------------1--|---------------------||-----7-------------8--8----|--12----15----10--10-----1--|-----5--5------------||----------------------7----|--11-----------9---9--9--2--|-----5--5------------||--7-----7--8--8-9-----9----|--12----------11--11-----3--|-----5--5------------||---------------------------|-------------------------3--|-----3--3------------||---------------------------|-------------------------1--|---------------------|
Solo |--------------------------|-----2--2-0--------3--3-0-----||--------------------------|------------------------------||-------------------2----3-|--4---------2-3-4---------2-3-||--------------------------|------------------------------||--------------------------|------------------------------||--------------------------|------------------------------|
|-----4--4-0--------3--3-0-----|-----2--2-0--------3--3-0-----||------------------------------|------------------------------||--4---------2-3-4---------2-3-|--4---------2-3-4---------2-3-||------------------------------|------------------------------||------------------------------|------------------------------||------------------------------|------------------------------|
|-----4--4-0----------------||---------------------------||--4---------2-3-4--7---6---||---------------------------||---------------------------||---------------------------|
|--------------------------------|----------------------------||--------------------------------|--------------------7---8---||--6-7-6-----6-------------------|--------6--7--6-7-9---------||--------9-----9-7------------7--|--7--9----------------------||---------------------9-7-7-9----|----------------------------||--------------------------------|----------------------------|
|-----------------------------|----------------------------|----------0-----9-------------||--8-7------------------------|-----9---------9---------9--|------10-----------10--10~----||------7-9---7-6--6--7--6-----|--------8---------8---------|---9---------9----------9~----||--------------------------7--|--9--------10--------10-----|--11--------------------------||-----------------------------|----------------------------|------------------------------||-----------------------------|----------------------------|------------------------------|
Last Chorus |-------------------------------------||--------------7-------------8--------||-------------------------------------||--7--------------7--8--8-9-----9--8--||-------------------------------------||-------------------------------------|
|---------------------------|------------------------------||-----7-------------8-------|------------------------------||----------------------7----|------7--9--9br------7--------||--7-----7--8--8-9----------|--7-9-------------------9--7--||---------------------------|------------------------------||---------------------------|------------------------------|
|---------------------------------|----------------------------||---------------------------------|-----7-------------8--------||------7---7-------7---7---9-7----|----------------------------||--7-9---------7-9-------------9--|--7-----7--8--8-9-----9--8--||---------------------------------|----------------------------||---------------------------------|----------------------------|
|---------------------------|----------------------------||-----7-------------8-------|--12----15----10--10--10----||----------------------7----|--11-----------9---9---9----||--7-----7--8--8-9-----9----|--------------11------------||---------------------------|----------------------------||---------------------------|----------------------------|
|--10--10--10--10--10--12--12----|-------------------------||--12--12--12--12--12--14--14----|--7----7--7--8--7--------||--12--12--12--12--12--14--14----|-------------------9--7--||---0---0---0---0---0---0---0----|-------------------------||--------------------------------|-------------------------||--------------------------------|-------------------------|
|------------------------------|---------------------------||-----10-----------------------|-----10--7--7--8--7--------||-(7)-----------------7--9--7--|-(7)-----------------9--7--||----------7---7---9-----------|---------------------------||------------------------------|---------------------------||------------------------------|---------------------------|
|-------------------------------|-------------------------||-------------------------------|--7----7--7--8--7--------||------7---7------7---7--9-7----|-------------------9--7--||--7-9--------7-9------------9--|-------------------------||-------------------------------|-------------------------||-------------------------------|-------------------------|
|-------------------------------|---------------------------||-----10------------------------|-----10--7--7--8--7--------||-(7)------------------7--9--7--|-(7)-----------------9--7--||----------7---7---7-9----------|---------------------------||-------------------------------|---------------------------||-------------------------------|---------------------------|
|-------------------------------|-------------------------||-------------------------------|--7----7--7--8--7--------||------7---7------7---7--9-7----|-------------------9--7--||--7-9--------7-9------------9--|-------------------------||-------------------------------|-------------------------||-------------------------------|-------------------------|
|-------------------------------|---------------------------||-----10------------------------|-----10--7--7--8--7--------||-(7)------------------7--9--7--|-(7)-----------------9--7--||----------7---7---7-9----------|---------------------------||-------------------------------|---------------------------||-------------------------------|---------------------------|
|-------------------------------|--------------------------||-------------------------------|--7----7--7--8--7--8--10--||------7---7------7---7--9-7----|--------------------------||--7-9--------7-9------------9--|--------------------------||-------------------------------|--------------------------||-------------------------------|--------------------------|
|-----10-----12-----10---------||-(10)---------------------12--||------------------------------||------------------------------||------------------------------||------------------------------|
|-------12b-----12b--12b--12br-----10-----10------||-(12)--------------------------------12------12--||-------------------------------------------------||-------------------------------------------------||-------------------------------------------------||-------------------------------------------------|
|------------10--12-10-------10----------|-------------------------||-(12)-10-12--------------12----12-10----|--7----7--7--8--7--------||----------------------------------------|-------------------9-----||----------------------------------------|-------------------------||----------------------------------------|-------------------------||----------------------------------------|-------------------------|
|--------------------------|---------------------------------||--7--8--7-----------------|---------------------------------||-----------------7--------|------7-----------7----7-----7---||-----------9-----------7--|--7-9---7-9---7-9----9---7-9---7-||--------------------------|---------------------------------||--------------------------|---------------------------------|
|----------------------------------|-------------------------||----------------------------------|--7----7----8--7--8--10--||----7-----7-----7-----------------|--7----7-----------------||--9---7-9-----9---9-7---------7---|--7----7-----------------||----------------------9-7-7-9-----|-------------------------||----------------------------------|-------------------------|
|------10----12-----10---------|-------------------------------||-(10)---------------------12--|-(12)-12-10----7--7------------||------------------------------|-----------------------9----7--||------------------------------|-------------------------------||------------------------------|-------------------------------||------------------------------|-------------------------------|
|-------------------------------|-------------------|||-------------------------------|-------------------|||--7--9b--11--11--11-9-7-----7--|--7~~~-------------|||-------------------------9-----|-------------------|||-------------------------------|-------------------|||-------------------------------|-------------------||
Tap to rate this tab
 
# A B C D E F G H I J K L M N O P Q R S T U V W X Y Z