Suffocation – Despise The Sun tab

--- SUFFOCATION  --- 
                            "Despise The Sun" 
                     From album: "Despise The Sun" EP 
                     

                            TABULATURE LEGEND: 
                   " - tremolo             h - hammer on            
                   ~ - vibrato             \ - slide down 
                   p - pull off            / - slide down 
                  tr - trill               ^ - pinch harmonics      
                   = - sustained note      b - bend string          
                p.m. - palm muting         t - tapping 

TUNING: C# [C#,F#,B,e,g#,c#] 

[Riff 1] ||--------------------------|-----------------------|| ||o-------------------------|----------------------o|| ||--------------------------|-3---------3-----------|| ||--------6-5---------8-7---|-2---------2-----------|| ||o-6-5-2-4-3-8-7-6-2-6-5-8-|-1---4-3-3-1---4-3-3--o|| ||--4-3-0-----6-5-4-0-----6-|-----2-1-1-----2-1-1---||
| . . . . . . . . . . . . | . . . . . . | ||--------------------------|-----------------------|| ||o-------------------------|----------------------o|| ||--------------------------|-3---------3-----------|| ||--------6-5---------8-7---|-2---------2-----------|| ||o-6-5-2-4-3-8-7-6-2-6-5-8-|-1---4-3-3-1---4-3-3--o|| ||--4-3-0-----6-5-4-0-----6-|-----2-1-1-----2-1-1---|| . . . . . . . . . . . . . . . . . .
|-------------------------|---------------------| |-------------------------|---------------------| |-------------------------|-3---------3---------| |-------2-1---------3---4-|-2---------2---------| |-3-2-------3---3-4---2---|-1---4-3-3-1---4-3-3-| |-----4-------2-----------|-----2-1-1-----2-1-1-|
| . . . . . . . . . . . . | . . . . . . | |-------------------------|---------------------| |-------------------------|---------------------| |-------------------------|-3---------3---------| |-------2-1---------3---4-|-2---------2---------| |-3-2-------3---3-4---2---|-1---4-3-3-1---4-3-3-| |-----4-------2-----------|-----2-1-1-----2-1-1-| . . . . . . . . . . . . . . . . . .
|-------------------------|----------------------| |-------------------------|----------------------| |-------------------------|-3---------3----------| |-------6-5---------8-7---|-2---------2----------| |-6-5-2-4-3-8-7-6-2-6-5-8-|-1---4-3-3-1---4-3-3--| |-4-3-0-----6-5-4-0-----6-|-----2-1-1-----2-1-1--|
| . . . . . . . . . . . . | . . . . . . | |-------------------------|----------------------| |-------------------------|----------------------| |-------------------------|-3---------3----------| |-------6-5---------8-7---|-2---------2----------| |-6-5-2-4-3-8-7-6-2-6-5-8-|-1---4-3-3-1---4-3-3--| |-4-3-0-----6-5-4-0-----6-|-----2-1-1-----2-1-1--| . . . . . . . . . . . . . . . . . .
|-----------------------|---------------------| |-----------------------|---------------------| |-----------------------|-3---------3---------| |-------6-5---------7---|-2---------2---------| |-7-6-------7---7-8-----|-1---4-3-3-1---4-3-3-| |-----8-------6---------|-----2-1-1-----2-1-1-|
| . . . . . . . . . . | . . . . . . | |-----------------------|---------------------| |-----------------------|---------------------| |-----------------------|-3---------3---------| |-------2-1---------3---|-2---------2---------| |-3-2-------3---3-4-----|-1---4-3-3-1---4-3-3-| |-----4-------2---------|-----2-1-1-----2-1-1-| . . . . . . . . . . . . . . . .
|-------------------------|-----------------------| |-------------------------|-----------------------| |-------------------------|-3---------3-----------| |-------6-5---------8-7---|-2---------2-----------| |-6-5-2-4-3-8-7-6-2-6-5-8-|-1---4-3-3-1---4-3-3---| |-4-3-0-----6-5-4-0-----6-|-----2-1-1-----2-1-1---|
| . . . . . . . . . . . . | . . . . . . | |-------------------------|-----------------------| |-------------------------|-----------------------| |-------------------------|-3---------3-----------| |-------6-5---------8-7---|-2---------2-----------| |-6-5-2-4-3-8-7-6-2-6-5-8-|-1---4-3-3-1---4-3-3---| |-4-3-0-----6-5-4-0-----6-|-----2-1-1-----2-1-1---| . . . . . . . . . . . . . . . . . .
|-------------------------|---------------------| |-------------------------|---------------------| |-------------------------|-3---------3---------| |-------2-1---------3---4-|-2---------2---------| |-3-2-------3---3-4---2---|-1---4-3-3-1---4-3-3-| |-----4-------2-----------|-----2-1-1-----2-1-1-|
| . . . . . . . . . . . . | . . . . . . | |-------------------------|---------------------| |-------------------------|---------------------| |-------------------------|-3---------3---------| |-------2-1---------3---4-|-2---------2---------| |-3-2-------3---3-4---2---|-1---4-3-3-1---4-3-3-| |-----4-------2-----------|-----2-1-1-----2-1-1-| . . . . . . . . . . . . . . . . . .
|-------------------------|----------------------| |-------------------------|----------------------| |-------------------------|-3---------3----------| |-------6-5---------8-7---|-2---------2----------| |-6-5-2-4-3-8-7-6-2-6-5-8-|-1---4-3-3-1---4-3-3--| |-4-3-0-----6-5-4-0-----6-|-----2-1-1-----2-1-1--|
| . . . . . . . . . . . . | . . . . . . | |-------------------------|----------------------| |-------------------------|----------------------| |-------------------------|-3---------3----------| |-------6-5---------8-7---|-2---------2----------| |-6-5-2-4-3-8-7-6-2-6-5-8-|-1---4-3-3-1---4-3-3--| |-4-3-0-----6-5-4-0-----6-|-----2-1-1-----2-1-1--| . . . . . . . . . . . . . . . . . .
|-------------------------|---------------------|------------------------| |-------------------------|---------------------|------------------------| |-------------------------|-3---------3---------|-3----------------------| |-------6-5---------7---8-|-2---------2---------|-2---------------3---4--| |-7-6-------7---7-8---6---|-1---4-3-3-1---4-3-3-|-1---4-3-3---3-4---2----| |-----8-------6-----------|-----2-1-1-----2-1-1-|-----2-1-1-2------------|
| . . . . . . . . . . . . | . . . . . . | . . . . . . . . . | |-------------------------|---------------------|------------------------| |-------------------------|---------------------|------------------------| |-------------------------|-3---------3---------|-3----------------------| |-------2-1---------3---4-|-2---------2---------|-2---------------3---4--| |-3-2-------3---3-4---2---|-1---4-3-3-1---4-3-3-|-1---4-3-3---3-4---2----| |-----4-------2-----------|-----2-1-1-----2-1-1-|-----2-1-1-2------------| . . . . . . . . . . . . . . . . . . . . . . . . . . .
[Outro 1] ||----------------------------------|----------------------------------|- ||----------------------------------|----------------------------------|- ||----------------------------------|----------------------------------|- ||----------------------------------|----------------------------------|- ||--------------------------------2-|--------------------6-5-3-5-6-5-3-|- ||-0000004-3333334-333333-4-3-1-3---|-0000004-3333334-33-4-3-1-3-4-3-1-|-
| ....... ....... ...... . . . . . | ....... ....... .. . . . . . . . | ||----------------------------------|----------------------------------|- ||----------------------------------|----------------------------------|- ||----------------------------------|----------------------------------|- ||----------------------------------|----------------------------------|- ||-2--------------------------------|-2------------------6-5-3-5-6-5-3-|- ||-0--------------------------------|-0------------------4-3-1-3-4-3-1-|- . . . . . . . . .
-|----------------------------------|----------------------------------|- -|----------------------------------|----------------------------------|- -|----------------------------------|----------------------------------|- -|----------------------------------|----------------------------------|- -|--------------------------------2-|--------------------6-5-5-4-5-3-4-|- -|-0000004-3333334-333333-4-3-1-3---|-0000004-3333334-33-4-3-3-2-3-1-2-|-
| ....... ....... ...... . . . . . | ....... ....... .. . . . . . . . | -|----------------------------------|----------------------------------|- -|----------------------------------|----------------------------------|- -|----------------------------------|----------------------------------|- -|----------------------------------|----------------------------------|- -|-2-----6-5-----6-5----------------|-2------------------6-5-5-4-5-3-4-|- -|-0-----4-3-----4-3----------------|-0------------------4-3-3-2-3-1-2-|- . . . . . . . . .
-|----------------------------------|----------------------------------|- -|----------------------------------|----------------------------------|- -|----------------------------------|----------------------------------|- -|----------------------------------|----------------------------------|- -|--------------------------------2-|--------------------6-5-3-5-6-5-3-|- -|-0000004-3333334-333333-4-3-1-3---|-0000004-3333334-33-4-3-1-3-4-3-1-|-
| ....... ....... ...... . . . . . | ....... ....... .. . . . . . . . | -|----------------------------------|----------------------------------|- -|----------------------------------|----------------------------------|- -|----------------------------------|----------------------------------|- -|----------------------------------|----------------------------------|- -|--------------------------------2-|--------------------6-5-3-5-6-5-3-|- -|-0000004-3333334-333333-4-3-1-3---|-0000004-3333334-33-4-3-1-3-4-3-1-|- ....... ....... ...... . . . . . ....... ....... .. . . . . . . .
-|----------------------------------|----------------------------------|| -|----------------------------------|----------------------------------|| -|----------------------------------|----------------------------------|| -|----------------------------------|--------------------------------4-|| -|--------------------------------2-|-----------------4------5-6-4-3-2-|| -|-0000004-3333334-333333-4-3-1-3---|-0000004-3333334-2------3-4-2-1---||
| ....... ....... ...... . . . . . | ....... ....... . . . . . . | -|----------------------------------|----------------------------------|| -|----------------------------------|----------------------------------|| -|----------------------------------|----------------------------------|| -|----------------------------------|--------------------------------4-|| -|--------------------------------2-|-----------------4------5-6-4-3-2-|| -|-0000004-3333334-333333-4-3-1-3---|-0000004-3333334-2------3-4-2-1---|| ....... ....... ...... . . . . . ....... ....... . . . . . .
[Riff 2] ||----------------------------------|----------------------------------|- ||----------------------------------|----------------------------------|- ||----------------------------------|----------------------------------|- ||----------------------------------|----------------------------------|- ||--------------------------------2-|--------------------6-5-3-5-6-5-3-|- ||-0000004-3333334-333333-4-3-1-3---|-0000004-3333334-33-4-3-1-3-4-3-1-|-
| ....... ....... ...... . . . . . | ....... ....... .. . . . . . . . | ||----------------------------------|----------------------------------|- ||----------------------------------|----------------------------------|- ||----------------------------------|----------------------------------|- ||----------------------------------|----------------------------------|- ||--------------------------------2-|--------------------6-5-3-5-6-5-3-|- ||-0000004-3333334-333333-4-3-1-3---|-0000004-3333334-33-4-3-1-3-4-3-1-|- ....... ....... ...... . . . . . ....... ....... .. . . . . . . .
-|----------------------------------|----------------------------------|| -|----------------------------------|----------------------------------|| -|----------------------------------|----------------------------------|| -|----------------------------------|----------------------------------|| -|--------------------------------2-|--------------------6-5-5-4-5-3-4-|| -|-0000004-3333334-333333-4-3-1-3---|-0000004-3333334-33-4-3-3-2-3-1-2-||
| ....... ....... ...... . . . . . | ....... ....... .. . . . . . . . | -|----------------------------------|----------------------------------|| -|----------------------------------|----------------------------------|| -|----------------------------------|----------------------------------|| -|----------------------------------|----------------------------------|| -|--------------------------------2-|--------------------6-5-5-4-5-3-4-|| -|-0000004-3333334-333333-4-3-1-3---|-0000004-3333334-33-4-3-3-2-3-1-2-|| ....... ....... ...... . . . . . ....... ....... .. . . . . . . .
[Riff 3] ||----------------------------------|------------------------------------|- ||----------------------------------|------------------------------------|- ||----------------------------------|------------------------------------|- ||----------------------------------|----------6p5----------5p4------4p3-|- ||----------------------------------|------------------------------------|- ||-00000000000000003333333344444444-|-33333333-----33333333-----3333-----|-
| ................................ | ........ ........ .... | ||----------------------------------|------------------------------------|- ||----------------------------------|------------------------------------|- ||----------------------------------|------------------------------------|- ||-----------------5555555566666666-|----------6p5----------5p4------4p3-|- ||----------------------------------|------------------------------------|- ||-0000000000000000-----------------|-33333333-----33333333-----3333-----|- ................................ ........ ........ ....
-|----------------------------------|--------------------------------------|- -|----------------------------------|--------------------------------------|- -|----------------------------------|--------------------------------------|- -|----------------------------------|--------------------------------3h4p3-|- -|----------------------------------|----------4p3----------3p2------------|- -|-44444444444444441111111133333333-|-22222222-----22222222-----2222-------|-
| ................................ | ........ ........ .... | -|----------------------------------|--------------------------------------|- -|----------------------------------|--------------------------------------|- -|----------------------------------|--------------------------------------|- -|-66666666666666663333333355555555-|--------------------------------3h4p3-|- -|----------------------------------|----------4p3----------3p2------------|- -|----------------------------------|-22222222-----22222222-----2222-------|- ................................ ........ ........ ....
-|----------------------------------|------------------------------------|- -|----------------------------------|------------------------------------|- -|----------------------------------|------------------------------------|- -|----------------------------------|----------6p5----------5p4------4p3-|- -|----------------------------------|------------------------------------|- -|-00000000000000003333333344444444-|-33333333-----33333333-----3333-----|-
| ................................ | ........ ........ .... | -|----------------------------------|------------------------------------|- -|----------------------------------|------------------------------------|- -|----------------------------------|----------6p5----------5p4------4p3-|- -|-----------------5555555566666666-|------------------------------------|- -|----------------------------------|------------------------------------|- -|-0000000000000000-----------------|-33333333-----33333333-----3333-----|- ................................ ........ ........ ....
-|----------------------------------|| -|----------------------------------|| -|----------------------------------|| -|----------------------------------|| -|----------------------------------|| -|-44444444444444441111111133333333-||
| ................................ | -|----------------------------------|| -|----------------------------------|| -|----------------------------------|| -|-66666666666666663333333355555555-|| -|----------------------------------|| -|----------------------------------|| ................................
[Outro 2] |--------------| |--------------| |--------------| |--------------| |-4---5-4------| |-2---3-2------|
| . . . | |--------------| |--------------| |--------------| |--------------| |-4---5-4------| |-2---3-2------| . . .
[RIFF 2 (x2)] [RIFF 3]
[Outro 3] |-------------------------| |-------------------------| |-------------------------| |-----------7-------------| |-3-----3-4-----4---------| |-1-1-1-------5---5p4-5p4-|
| . . . . . . . | |-------------------------| |-------------------------| |-------------------------| |-------------------------| |-3-------------4-3-------| |-1-----------5-----4-5p4-| . . . . .
[Riff 4] ||--------------------------|--------------------------|| ||o-------------------------|-------------------------o|| ||--------------------------|--------------------------|| ||------------7-----------7-|-----------7--------------|| ||o-3-----3-4---3-----3-4---|-3-----3-4-----4---------o|| ||--1-1-1-------1-1-1-------|-1-1-1-------5---5p4-5p4--||
| . . . . . . . . . . | . . . . . . . | ||--------------------------|--------------------------|| ||o-------------------------|-------------------------o|| ||--------------------------|--------------------------|| ||------------7-----------7-|-----------7--------------|| ||o-3-----3-4---3-----3-4---|-3-----3-4-----4-3-------o|| ||--1-1-1-------1-1-1-------|-1-1-1-------5-----4-5p4--|| . . . . . . . . . . . . . . . . . .
|-------------------------|---------------------------| |-------------------------|---------------------------| |-------------------------|---------------------------| |-----------6-----------6-|-----------6-------8-6h7p6-| |-2-----2-3---2-----2-3---|-2-----2-3-----7-8---------| |-0-0-0-------0-0-0-------|-0-0-0-------5-------------|
| . . . . . . . . . . | . . . . . . . . . | |-------------------------|---------------------------| |-------------------------|---------------------------| |-------------------------|---------------------------| |-----------6-----------6-|-----------6-------8-6h7p6-| |-2-----2-3---2-----2-3---|-2-----2-3-----7-8---------| |-0-0-0-------0-0-0-------|-0-0-0-------5-------------| . . . . . . . . . . . . . . . . . . .
|-------------------------|--------------------------| |-------------------------|--------------------------| |-------------------------|--------------------------| |-----------7-----------7-|-----------7-7-10-7-6-9-6-| |-3-----3-4---3-----3-4---|-3-----3-4----------------| |-1-1-1-------1-1-1-------|-1-1-1--------------------|
| . . . . . . . . . . | . . . . . . . . . . . . | |-------------------------|--------------------------| |-------------------------|--------------------------| |-------------------------|--------------------------| |-----------7-----------7-|-----------7--------------| |-3-----3-4---3-----3-4---|-3-----3-4----------------| |-1-1-1-------1-1-1-------|-1-1-1-------5--8-5-4-7-4-| . . . . . . . . . . . . . . . . . . . . .
|-------------------------|-------------------------| |-------------------------|-------------------------| |-------------------------|-------------------------| |-----------7-----------7-|-----------7-------------| |-3-----3-4---3-----3-4---|-3-----3-4-----4---------| |-1-1-1-------1-1-1-------|-1-1-1-------5---5p4-5p4-|
| . . . . . . . . . . | . . . . . . . | |-------------------------|-------------------------| |-------------------------|-------------------------| |-------------------------|-------------------------| |-----------7-----------7-|-----------7-------------| |-3-----3-4---3-----3-4---|-3-----3-4-----4---------| |-1-1-1-------1-1-1-------|-1-1-1-------5---5p4-5p4-| . . . . . . . . . . . . . . . . .
|-------------------------|---------------------------| |-------------------------|---------------------------| |-------------------------|---------------------------| |-----------7-----------6-|-----------6-------8-6h7p6-| |-3-----3-4---2-----2-3---|-2-----2-3-----7-8---------| |-1-1-1-------0-0-0-------|-0-0-0-------5-------------|
| . . . . . . . . . . | . . . . . . . . . | |-------------------------|---------------------------| |-------------------------|---------------------------| |-------------------------|---------------------------| |-----------7-----------6-|-----------6-------8-6h7p6-| |-3-----3-4---2-----2-3---|-2-----2-3-----7-8---------| |-1-1-1-------0-0-0-------|-0-0-0-------5-------------| . . . . . . . . . . . . . . . . . . .
|-------------------------|--------------------------------------| |-------------------------|--------------------------------------| |-------------------------|--------------------------------------| |-----------7-----------7-|-----------7-7-10-7-6-9-6-6-9-6-5-9-5-| |-3-----3-4---3-----3-4---|-3-----3-4----------------------------| |-1-1-1-------1-1-1-------|-1-1-1--------------------------------|
| . . . . . . . . . . | . . . . . . . . . . . . . . . . . | |-------------------------|--------------------------------------| |-------------------------|--------------------------------------| |-------------------------|--------------------------------------| |-----------7-----------7-|-----------7--------------------------| |-3-----3-4---3-----3-4---|-3-----3-4----------------------------| |-1-1-1-------1-1-1-------|-1-1-1-------5--8-5-4-7-4-4-7-4-3-7-3-| . . . . . . . . . . . . . . . . . . . . . . . . . . .
[Riff 5a] ||----------------------------|---------------------------|- ||o---------------------------|---------------------------|- ||----------------------------|---------------------------|- ||------8---9-8-----8---12-11-|-----8---9-8-----8---12-11-|- ||o---9-6-9-7-6---9-6-9-10--9-|---9-6-9-7-6---9-6-9-10--9-|- ||--0-7---7-7-6-0-7---7-10--9-|-0-7---7-7-6-0-7---7-10--9-|-
| . . . . . . . . . . . . | . . . . . . . . . . . . | ||----------------------------|---------------------------|- ||o---------------------------|---------------------------|- ||----------------------------|---------------------------|- ||------8---9-8-----8---12-11-|-----8---9-8-----8---12-11-|- ||o---9-6-9-7-6---9-6-9-10--9-|---9-6-9-7-6---9-6-9-10--9-|- ||--0-7---7-7-6-0-7---7-10--9-|-0-7---7-7-6-0-7---7-10--9-|- . . . . . . . . . . . . . . . . . . . . . . . .
-|-------------------------|--------------------------|| -|-------------------------|-------------------------o|| -|---------3h4---------2h3-|--------------------------|| -|-------------------------|---------9\7---------5----|| -|---3h4---------2h3-------|-2-2-2-2-7\5-5-5-5-5-3-5-o|| -|-1-----1-----0-----0-----|-0-0-0-0-7\5-3-3-3-3-3-3--||
| . . . . | . . . . . . . . . . | -|-------------------------|--------------------------|| -|-------------------------|-------------------------o|| -|---------3h4---------2h3-|--------------------------|| -|-------------------------|---------9\7---------5----|| -|---3h4---------2h3-------|-2-2-2-2-7\5-5-5-5-5-3-5-o|| -|-1-----1-----0-----0-----|-0-0-0-0-7\5-3-3-3-3-3-3--|| . . . . . . . . . . . . . .
[Riff 5b] ||---------------------------|---------------------------|- ||---------------------------|---------------------------|- ||---------------------------|---------------------------|- ||-----8---9-8-----8---12-11-|-----8---9-8-----8---12-11-|- ||---9-6-9-7-6---9-6-9-10--9-|---9-6-9-7-6---9-6-9-10--9-|- ||-0-7---7-7-6-0-7---7-10--9-|-0-7---7-7-6-0-7---7-10--9-|-
| . . . . . . . . . . . . | . . . . . . . . . . . . | ||---------------------------|---------------------------|- ||---------------------------|---------------------------|- ||---------------------------|---------------------------|- ||-----8---9-8-----8---12-11-|-----8---9-8-----8---12-11-|- ||---9-6-9-7-6---9-6-9-10--9-|---9-6-9-7-6---9-6-9-10--9-|- ||-0-7---7-7-6-0-7---7-10--9-|-0-7---7-7-6-0-7---7-10--9-|- . . . . . . . . . . . . . . . . . . . . . . . .
-|-------------------------|-------------------------|| -|-------------------------|-------------------------|| -|---------7h8---------6h7-|-------------------------|| -|-------------------------|---------9\7-------------|| -|---7h8---------6h7-------|-2-2-2-2-7\5-5-5-5-5-5-5-|| -|-6-----5-----4-----4-----|-0-0-0-0-7\5-3-3-3-3-3-3-||
| . . . . | . . . . . . . . . . | -|-------------------------|-------------------------|| -|-------------------------|-------------------------|| -|---------3h4---------2h3-|-------------------------|| -|-------------------------|---------9\7-------------|| -|---3h4---------2h3-------|-2-2-2-2-7\5-5-5-5-5-5-5-|| -|-1-----1-----0-----0-----|-0-0-0-0-7\5-3-3-3-3-3-3-|| . . . . . . . . . . . . . .
||----------------------------------|----------------------------------|- ||----------------------------------|----------------------------------|- ||----------------------------------|----------------------------------|- ||--------------------------------4-|----------------------------------|- ||-2----------------------6-5-3-5-2-|--------------------6-5-3-5-6-5-3-|- ||-0----------------------4-3-1-3---|--------------------4-3-1-3-4-3-1-|-
| . . . . . . | . . . . . . . | ||----------------------------------|----------------------------------|- ||----------------------------------|----------------------------------|- ||----------------------------------|----------------------------------|- ||----------------------------------|----------------------------------|- ||--------------------------------2-|--------------------6-5-3-5-6-5-3-|- ||-0000004-3333334-333333-4-3-1-3---|-0000004-3333334-33-4-3-1-3-4-3-1-|- ....... ....... ...... . . . . . ....... ....... .. . . . . . . .
-|----------------------------------|----------------------------------|| -|----------------------------------|----------------------------------|| -|----------------------------------|----------------------------------|| -|----------------------------------|--------------------------------4-|| -|--------------------------------2-|-----------------4------5-6-4-3-2-|| -|-0000004-3333334-333333-4-3-1-3---|-0000004-3333334-2------3-4-2-1---||
| ....... ....... ...... . . . . . | ....... ....... . . . . . . | -|----------------------------------|----------------------------------|| -|----------------------------------|----------------------------------|| -|----------------------------------|----------------------------------|| -|----------------------------------|--------------------------------4-|| -|--------------------------------2-|-----------------4------5-6-4-3-2-|| -|-0000004-3333334-333333-4-3-1-3---|-0000004-3333334-2------3-4-2-1---|| ....... ....... ...... . . . . . ....... ....... . . . . . .
[RIFF 2 (x2)]
[Ending] |----------------| |----------------| |----------------| |----------------| |-5-4-4-3-4-2-3--| |-3-2-2-1-2-0-1--|
| . . . . . . . | |----------------| |----------------| |----------------| |----------------| |-5-4-4-3-4-2-3--| |-3-2-2-1-2-0-1--| . . . . . . .
End.
Please rate this tab:
x1.0