Suffocation – Torn Into Enthrallment tab

                       SUFFOCATION - TORN INTO ENTHRALLMENT
                       From the Album PIERCED FROM WITHIN
                       Copyright 1995 Road Runner Records

                       Version 1.0 - June 1999


Transcribed by: Dan Rabago
email Dan at lostsoul69@hotmail.com, for questions or corrections

Visit Malignant Tablature Dominion at:
                http://www.angelfire.com/ak2/MalignantTabs/index.html

Check Out 's Web Page, With More Transcriptions On It:
               /

Check Out DEATH WARP, With More Transcriptions On It:
               http://tiger.towson.edu/~dalvis1


/     slide up
\     slide down
p     pull on
h     hammer on
~     vibrato
.     pm
hr    harmonic


Tuning:C sharp

|---------------------------------------------------||---------------------------------------------------||-------0---0---------------------0---0-------------||-----9---8-------7---7---------9---8-------7-------||---7-----------6---6---6-----7-----------6---6---6-||-0-----------0-------------0-----------0-------8---|
|--------------------------------------------------||--------------------------------------------------||-------0---0--------------------------------4-5-4-||-----9---8-------7---7--------5-----------4-------||---7-----------6---6---6----6---6---6---5---------||-0-----------0------------7-------7---6-----------|
. . . . . . . . . . . . . . . .|-----------------------------------------||-----------------------------------------||---4---3-----2---2-----4---3-----2-------||-2---2---2-2---2---2-2---2---2-2---2---2-||-2---------2---------2---------2-----2---||-0---------0---------0---------0---------|
. . . . . . . . . . . . . . . .|----------------------------------------------------------||----------------------------------------------------------||-------------------------------/------------/-3-2---------||-2-4---3---2-4---3---2-4---3---/--2-4-----3-/-----1-2---1-||-2-2-5-1-3-2-2-5-1-3-2-2-5-1-3-/--2-2-5-3-1-/---------3---||-0---3---1-0---3---1-0---3---1-/--0---3-1---/-------------|
|-------------------------------------------------||-------------------------------------------------||-------------------------------------------/-----||-2-2---1---2---------2---------2-----------/---2-||-2---3---2-2-4---3---2-3---2---2-2---1-----/---2-||-0---------0---5---4-0---4---3-0---3---2---/---0-|
. . . . . . . . . . . . . . . . . . . . . . .|-----------------------------------------------------------------||-----------------------------------------------------------------||-----------------------------------------------------------------||-4-3-----------------3-------------3-------------3-----------4-3-||-2-1--2--2-2-2-2-2-2-1-2-2-2-2-2-2-1-2-2-2-2-2-2-1-2-2-2-2-3-2-1-||------0--0-0-0-0-0-0---0-0-0-0-0-0---0-0-0-0-0-0---0-0-0-0-1-----|
... ... ... . . . . . . . . . . . . . . . . . . . . . . .|-----------------------------------------------------------------------||-----------------------------------------------------------------------||-----------------------------------------------------------------------||-------------3-------------3-------------3-------------3-----------4-3-||-------------1-2-2-2-2-2-2-1-2-2-2-2-2-2-1-2-2-2-2-2-2-1-2-2-2-2-3-2-1-||-000-000-000---0-0-0-0-0-0---0-0-0-0-0-0---0-0-0-0-0-0---0-0-0-0-1-----|
... ... ... ... ... ... ... ... ... ... ... . ... ... . .|-----------------------------------------------------------------------||------------------------------------------------------------------------||----------------------------------------------------------/-------------||-------------3-------------3-------------3-----------4-3--/-----------4-||-------------1-------------1-------------1---------3-2-1--/---------4-2-||-000-000-000---000-000-000---000-000-000---000-000-1------/-000-000-2---|
............................ ........................ . . . .|-----------------------------------------------------------------------------||-----------------------------------------------------------------------------||---------------------------------------------------------------/-------------||-3------------------------------3--------------------------4-3-/-----------3-||-1------------------------------1--------------------------2-1-/-2-2-2-2-2-1-||---0000111122223333222211112222---000011112222333322221111-----/-0-0-0-0-0---|
................ ........ ........ ..................|-----------------------------------------------------------------||-----------------------------------------------------------------||-----------------------------------------------------------------||-3------------------3----------4----------3--------------------3-||-1------------------1----------2----------1--------------------1-||---0000000000000000---00000000---00000000---000000000000000000---|
........ ........ ................. ........ .................|----------------------------------------------------------------------------||----------------------------------------------------------------------------||----------------------------------------------------------------------------||----------6----------5-------------------5----------6-6-5-------------------||----------4----------3-------------------3----------4-4-3-------------------||-00000000---00000000---22222222222222222---22222222-------22222222222222222-|
. . . . . . . .|---------------------||---------------------||-/-----------------/-||-/-----------------/-||-/-----3-4-----3-4-/-||-/-2-3-----2-3-----/-|
... . . ... . . ... . . . . . ... ... ... ... ... ... . . . .|-------------------------------------------------------------------||-------------------------------------------------------------------||-------------------------------------------------------------------||-----------------------------------------------------------------8-||-----3-4-----2-3-----2-3-1-0-2-------------666---------555-----6---||-000-----000-----000---------------000-444-----000-444-----0-5-----|
... . . ... . . ............................ . . . . . . . .|-------------------------------------------------------------------||-------------------------------------------------------------------||-------------------------------------------------/-----------------||------------------3------------------------------/-------8-------7-||-----3-4-----2-3--1------------------------------/-----6-------5---||-000-----000--------0000111122223333222200001111-/-0-5-----0-4-----|
.... . . . . .... . . . . .... . . . . .... . . . . . . . . . . . .|-----------------------------------------------------------------------||-----------------------------------------------------------------------||-----------------------------------------------------/-----------------||------2---1------------------------------------------/-----------------||--------3---2------4---3--------3---2--------2---1---/-2-2-2-2-2-2-2-2-||-0000---------0000---5---4-0000---4---3-0000---3---2-/-0-0-0-0-0-0-0-0-|
. . . . . . . . . . . . . .|----------------------------------------------------------||-------------------------------------------------------hr-||------------5\6--5\6/5------------/----------/---------4--||----------------------------------/-------hr--/-----------||-4-5-4-3-4--3\4--3\4/3--4-5-4-3-4-/--2--3-3--/--2---3-----||-2-3-2-1-2--------------2-3-2-1-2-/--0--1----/--0---1-----|
|-------------------------------||-------------------------------||-/-2-1----------3-2----------/-||-/-----1-2-1--------2-3-2----/-||-/-----------3------------4--/-||-/---------------------------/-|
Listen to it to piece it together.
Please rate this tab:
x1.0