Riot tab with lyrics by Sugarcult - Easy chords and tabs for guitar

Sugarcult – Riot tab

TUNING: DROP D

x - mute


introGtr 1|-------||-------||---8---||---x---| (x8)|---6---| |-------|
Gtr 2|------------------------------------------||------------------------------------------||-----4444-xxxxxxxx-----4444---------------||-111-4444-xxxxxxxx-111-4444-4444-66-44-33-||-111-2222-xxxxxxxx-111-2222-4444-66-44-33-||-111---------------111------4444-66-44-33-|
|------------------------------------------||------------------------------------------||-----4444-xxxxxxxx-888-4444---------------||-111-4444-xxxxxxxx-888-4444-4444-66-44-33-||-111-2222-xxxxxxxx-666-2222-4444-66-44-33-||-111------------------------4444-66-44-33-|
verse
Gtr2|------------------------------------------||------------------------------------------||-----4444-xxxxxxxx-----4444---------------||-111-4444-xxxxxxxx-111-4444-4444-66-44-33-||-111-2222-xxxxxxxx-111-2222-4444-66-44-33-||-111---------------111------4444-66-44-33-|
(x2) |------------------------------------------||------------------------------------------||-----4444-xxxxxxxx-888-4444---------------| |-111-4444-xxxxxxxx-888-4444-4444-66-44-33-| |-111-2222-xxxxxxxx-666-2222-4444-66-44-33-||-111------------------------4444-66-44-33-|
Gtr1(0.26)|----------------||----------------||-8--8--9-8-9-8--| (x4)|----------------| |----------------||----------------|
chorus
|------------------------------------------||------------------------------------------||----------44444444------------------------||-11111111-44444444-44444444-66666666------||-11111111-22222222-44444444-66666666------||-11111111----------44444444-66666666------|
(x2)|------------------------------------------||------------------------------------------||----------44444444-66666666---------------||-11111111-44444444-66666666-66666666------||-11111111-22222222-44444444-66666666------||-11111111-------------------66666666------|
before 2nd verse
Gtr 2|------------------------------------------||------------------------------------------||-----4444-xxxxxxxx-888-4444---------------||-111-4444-xxxxxxxx-888-4444-4444-66-44-33-||-111-2222-xxxxxxxx-666-2222-4444-66-44-33-||-111------------------------4444-66-44-33-|
2nd verse
Gtr 2|------------------------------------------||------------------------------------------||-----4444-xxxxxxxx-----4444---------------||-111-4444-xxxxxxxx-111-4444-4444-66-44-33-| (x3)|-111-2222-xxxxxxxx-111-2222-4444-66-44-33-||-111---------------111------4444-66-44-33-|
|------------------------------------------||------------------------------------------||-----4444-xxxxxxxx-888-4444---------------| |-111-4444-xxxxxxxx-888-4444-4444-66-44-33-| |-111-2222-xxxxxxxx-666-2222-4444-66-44-33-||-111------------------------4444-66-44-33-|
Gtr1(1.09)|----------------||----------------||-8--8--9-8-9-8--| (x4)|----------------| |----------------||----------------|
Chorus
|------------------------------------------||------------------------------------------||----------44444444------------------------||-11111111-44444444-44444444-66666666------||-11111111-22222222-44444444-66666666------||-11111111----------44444444-66666666------|
(x2)|------------------------------------------||------------------------------------------||----------44444444-66666666---------------||-11111111-44444444-66666666-66666666------||-11111111-22222222-44444444-66666666------||-11111111-------------------66666666------|
Bridge
Gtr 2|-------||-------||---8---||---x---| (x32)|---6---||-------|
Gtr 1|----------------||----------------||-8--8--9-8-9-8--| (x4)|----------------| |----------------||----------------|
|-----------||-----------||---xxxxx---||---xxxxx---||---xxxxx---||-----------|
lead solo
Gtr 1|-----------------------------------------------------------||-----------------------------------------------------------||-8----6-----11-10----------------8----6-----11-10---6--8~--||----8----8--------6--4--8-----------8----8--------6--------||---------------------------6~------------------------------||-----------------------------------------------------------|
|-----------------------------------------------------------||----------------12-11-9-7-6--------------------------------||-11--10--13--11-------------8-------8----6-----11-10---6--8||------------------------------8~-------8----8--------6-----||-----------------------------------------------------------||-----------------------------------------------------------|
Gtr 2|------------------------------------------||------------------------------------------||----------44444444------------------------||-11111111-44444444-44444444-66666666------||-11111111-22222222-44444444-66666666------||-11111111----------44444444-66666666------|
(x2)|------------------------------------------||------------------------------------------||----------44444444-66666666---------------||-11111111-44444444-66666666-66666666------||-11111111-22222222-44444444-66666666------||-11111111-------------------66666666------|
before last chorus
Gtr 2|-----------------------------------------||-----------------------------------------||-----4444-xxxxxxxx--888888--xxxxxxxx-----||-111-4444-xxxxxxxx--888888--xxxxxxxx-----| |-111-2222-xxxxxxxx--666666--xxxxxxxx-----||-111-------------------------------------|
Gtr 1 & 2|-----------------------------------------||-----------------------------------------||----4------------------6-----------------||-8--4--4--6--4--3---1--6--4--6--4--3-----||-8--2--4--6--4--3---1--4--4--6--4--3-----||-6-----4--6--4--3---1-----4--6--4--3-----|
chorus
|------------------------------------------||------------------------------------------||----------44444444------------------------||-11111111-44444444-44444444-66666666------||-11111111-22222222-44444444-66666666------||-11111111----------44444444-66666666------|
(x2)|------------------------------------------||------------------------------------------||----------44444444-66666666---------------||-11111111-44444444-66666666-66666666------||-11111111-22222222-44444444-66666666------||-11111111-------------------66666666------|
outro
|------------------------------------------||------------------------------------------||---------44444444----------66666666-------||-1111111-44444444-11111111-66666666-------||-1111111-22222222-11111111-44444444-------||-1111111----------11111111----------------|
|------------------------------------------||------------------------------------------||----------44444444------------------------||-11111111-44444444-44444444-66666666------||-11111111-22222222-44444444-66666666------||-11111111----------44444444-66666666------|
end on
Gtr 2|-------||-------||-------||---1~--||---1~--||---1~--|
Gtr 1|----------------||----------------||-8--8--9-8-9-8--| (x4)|----------------| |----------------||----------------|
Please rate this tab:
x1.0