Suicide Silence – Bludgeonoed To Death tab

Bludgeoned to Death
By: Suicide Silence

Sorry for any mistakes, if                .  pm
you play a 6 string guitar you            *  pinched harmonic 
know hard it is to stay perfectly         h  hammer on
in this tuning. There's a slight          p  pull off
chance I'm off on some stuff              " tremolo picking
but if it is it's only one fret
at the most. But, this doesn't blow 
like the other one.

B|--------------|G|--------------|D|--------------|A|--------------|E|----------3*--|A|--0-333-0-----| . .
|----------------------------------------| |----------------------------------------| |----------------------------------------| |----------------------------------------| 4x |----------------------------4"---3"-----| |--111-111-111-111-111-111-1----1--------| ... ... ... ... ... ... . .
|----------------| |----------------| |----------------| |----------------| 2x |--0-0-3-2-1-3*--| |--0-0-3-2-1-----| . . . . .
Guitar one |---------------------------| |---------------------------| |---------------------------| |---------------------------| |-----------3"----------2"--| |--2"-5"-2"----1"-4"-1"-----|
Guitar two |---------------------------| |---------------------------| |---------------------------| |---------------------------| |--0------------------------| |--0------------------------| .
|--------| |--------| |--------| |--------| |--2--1--| |--3--2--| . .
|-----------------------------------------------| |-----------------------------------------------| |-----------------------------------------------| |-----------------------------------------------| 2x |-----------3"----------2"----------3"-2-5-2-4--| |--2"-5"-2"----1"-4"-1"----2"-5"-2"----2-5-2-4--| . . . .
|---------------------------------------------------| |---------------------------------------------------| |---------------------------------------------------| |---------------------------------------------------| |-----------3"----------2"----------3"----------2"--| |--2"-5"-2"----1"-4"-1"----2"-5"-2"----1"-4"-1"-----|
|--------------------------------------| |--------------------------------------| |--------------------------------------| |--------3*----------------3*----------| |--2-5-2----1-4-1----2-5-2----2-5-2-4--| |--2-5-2----1-4-1-2*-2-5-2----2-5-2-4--| . . . . . . . . . . . . .
|----------------------------| |----------------------------| |----------------------------| |----------------------------| |--0--0--0--0--0--0--0--000--| |--1--1--1--1--1--1--1--111--| . . . . . . . ...
|----------------| |----------------| |----------------| |----------------| 3x |--0--0--0--000--| |--1--1--1--111--| . . . ...
|----------------| |----------------| |----------------| |----------------| 4x |----------------| |--5-1-0-1-0-1---|
Guitar one |-----------------------------------| |-----------------------------------| |-----------------------------------| |-----------------------------------| 2x |------4h7p4h7-----3h6p3h6-----2h5--| |--4h7---------3h6---------2h5------|
Guitar 2 |----------------------------| |-----------------------------------| |----------------------------| |-----------------------------------| |----------------------------| |-----------------------------------| |----------------------------| |-----------------------------------| |--0-------------------------| |------4h7p4h7-----3h6p3h6-----2h5--| |--0-------------------------| |--4h7---------3h6---------2h5------|
.
|-----------------------------------| |-----------------------------------| |-----------------------------------| |-----------------------------------| 4x |-----4"-3"----3"-2"----2"----------| |--3"-------2"-------1"-------------|
|-----------------------------------| |-----------------------------------| |-----------------------------------| |-----------------------------------| 4x |------4h7p4h7-----3h6p3h6-----2h5--| |--4h7---------3h6---------2h5------|
|---------------------------| |---------------------------| |------6-5-----5-4----------| |---------------------------| 4x |------4-3-----3-2----------| |--555-----444-----333-333--| ... ... ... ...
|---------------------------| |---------------------------| |---------------------------| |---------------------------| 4x |--3-2-1-1-3-2-1-1-3-2-3-2--| |--3p2-1-1-3p2-1-1-3p2h3p2--| . . . .
|-----------| |-----------| |-----------| |-----------| |--6-6-6-6--| |--7-7-7-7--| . . . .
|----------------| |----------------| |----------------| |----------------| 8x |--6-6-6-6-6-66--| |--7-7-7-7-7-77--| . . . . . ..
|---------------------------| |---------------------------| |---------------------------| |---------------------------| 4x |--------3"-6"-------2"-5"--| |--3"-6"-------2"-5"--------|
|-----------------| |------------| |-----------------| |------------| |-----------------| |------------| |-----------------| 3x |------------| |-----3h6----2h5--| |--2-5-2-5*--| |--44-----33------| |--2-5-2-----| . . .That whole riff 4x
|-----| |-----| |-----| |-----| |--0--| |--0--|
Please rate this tab:
x1.0