Summers End - Haunting Hallowed Graves tab

D||-----------------------------------|-----------------------------------|A||-----------------------------------|-----------------------------------|F||-----------------------------------|-----------------------------------|C||-----------------------------------|-----------------------------------|G||------5---7---8---10---8---7---8-8-|------7---8---10---8---7---8---7-7-|C||--0-0---0---0---0----0---0---0-----|--8-8---8---8----8---8---8---8-----|
----------------------------------|----------------------------------|----------------------------------|----------------------------------|----------------------------------|----------------------------------|--------------5-------------------|----------------------------------|------7---8-------8---7---8---7-7-|------7---8---7-7-----7---8---7-7-|--5-5---5---5---5---5---5---5-----|--7-7---7---7-----8-8---8---8-----|
-----------------------------------|-----------------------------------|-----------------------------------|-----------------------------------|-----------------------------------|-----------------------------------|-----------------------------------|-----------------------------------|------5---7---8---10---8---7---8-8-|------7---8---10---8---7---8---7-7-|--0-0---0---0---0----0---0---0-----|--8-8---8---8----8---8---8---8-----|
----------------------------------|----------------------------------|----------------------------------|----------------------------------|----------------------------------|----------------------------------|--------------5-------------------|----------------------------------|------7---8-------8---7---8---7-7-|------7---8---7-7-----7---8---7-7-|--5-5---5---5---5---5---5---5-----|--7-7---7---7-----8-8---8---8-----|
-----------------------------------|-----------------------------------|-----------------------------------|-----------------------------------|-----------------------------------|-----------------------------------|-----------------------------------|-----------------------------------|------5---7---8---10---8---7---8-8-|------7---8---10---8---7---8---7-7-|--0-0---0---0---0----0---0---0-----|--8-8---8---8----8---8---8---8-----|
----------------------------------|----------------------------------|----------------------------------|----------------------------------|----------------------------------|----------------------------------|--------------5-------------------|----------------------------------|------7---8-------8---7---8---7-7-|------7---8---7-7-----7---8---7-7-|--5-5---5---5---5---5---5---5-----|--7-7---7---7-----8-8---8---8-----|
----------------------------------------|------------------------------------|----------------------------------------|------------------------------------|----------------------------------------|------------------------------------|-----------------------7----------------|------------------------------------|--0-0-0--0-0-0--7-8-10---10-8-7-8-7-4---|------8---7-------------8---7---5---|--0-0-0--0-0-0--------------------------|--0-0---0---0-0-0-0-0-0---0---0---0-|
-------------------------------------------|-------------------------------------------|-------------------------------------------|------------------------------7------------|-----8---7-------------7-8-10---10-8-7-8-7-|---0---0---0-0-0-0-0-0---------------------|
------------------------------------|------------------------------------|------------------------------------|------------------------------------|------------------------------------|------------------------------------|------------------------------------|------------------------------------|------8---7-------------8---7---5---|-----8---7-------------10---8---7---|--0-0---0---0-0-0-0-0-0---0---0---0-|---0---0---0-0-0-0-0-0----0---0---0-|
------------------------------------|------------------------------------|------------------------------------|------------------------------------|------8---7-------------8---7---5---|--0-0---0---0-0-0-0-0-0---0---0---0-|
-------------------------------------------|-------------------------------------------|-------------------------------------------|------------------------------7------------|-----8---7-------------7-8-10---10-8-7-8-7-|---0---0---0-0-0-0-0-0---------------------|
------------------------------------|------------------------------------|------------------------------------|------------------------------------|------------------------------------|------------------------------------|------------------------------------|------------------------------------|------8---7-------------8---7---5---|-----8---7-------------10---8---7---|--0-0---0---0-0-0-0-0-0---0---0---0-|---0---0---0-0-0-0-0-0----0---0---0-|
------------------------------|-------------------------------------------|------------------------------|-------------------------------------------|------------------------------|-------------------------------------------|--10------10-10-12------12-12-|-------------------5-7-5-3-5--3-2-3--2-3-0-|--8-------8--8--10------10-10-|--0----------------------------------------|--8-------8--8--10------10-10-|--0--0-0-0-0-0-0-0-------------------------|
----------------------------------------------|----------------------------------------------|---------9-10-9-10-9----12--10-9-10-9-10-9----|--12--12-------------12--------------------10-|----------------------------------------------|----------------------------------------------|
--------------------------------------------|--------------------------------------------|--------------------------------------------|--12----------------5-7-5-3-5--3-2-3--2-3-0-|--0-----------------------------------------|--0---0-0-0-0-0-0-0-------------------------|
-----------------------------------|-----------------------------------|--12--10-9-10----10--9----9--------|-----------------------12----12-10-|-----------------------------------|-----------------------------------|
--------------------------------------------|--------------------------------------------|--------------------------------------------|--12----------------5-7-5-3-5--3-2-3--2-3-0-|--0-----------------------------------------|--0---0-0-0-0-0-0-0-------------------------|
----------------------------------------------|----------------------------------------------|---------9-10-9-10-9----12--10-9-10-9-10-9----|--12--12-------------12--------------------10-|----------------------------------------------|----------------------------------------------|
-----------------------------------|--------------------------------------|-----------------------------------|--------------------------------------|-----------------------------------|--------------------------------------|--12-------------------------------|--------------------------------------|--0--------------------------------|--0-----------------------------------|--0---0-0-0-0-0---0-0-0-0-0-0-0-0--|--0--0-0-0-0-0-0-0---0-0-0-0-0-0-0-0--|
--------------------------------------|--------------------------------------|--------------------------------------|--------------------------------------|--------------------------------------|--------------------------------------|--------------------------------------|--------------------------------------|--0-----------------------------------|--0-----------------------------------|--0--0-0-0-0-0-0-0---0-0-0-0-0-0-0-0--|--0--0-0-0-0-0-0-0---0-0-0-0-0-0-0-0--|
--------------------------------------|--------------------------------------|--------------------------------------|--------------------------------------|--------------------------------------|--------------------------------------|--------------------------------------|--------------------------------------|--0-----------------------------------|--0-----------------------------------|--0--0-0-0-0-0-0-0---0-0-0-0-0-0-0-0--|--0--0-0-0-0-0-0-0---0-0-0-0-0-0-0-0--|
--------------------------------------|--------------------------------|--------------------------------------|--------------------------------|--------------------------------------|--------------------------------|--------------------------------------|--------------------------------|--0-----------------------------------|--0------------------0------0---|--0--0-0-0-0-0-0-0---0-0-0-0-0-0-0-0--|--0--0-0-0-0-0-0-0---0------0---|
-------------------------------------|-------------------------------------|-------------------------------------|-----------------------3--2---2--0---|--0--------------------5--3---3--0---|--0--0-0-0-0-0-0-0-0-0------0------0-|
-------------------------------------------------------------|-------------------------------------------------------------|-------------------------------------------------------------|-------------------------------------------------------------|--8--8-8-12-12-8-8-10-10-8-8---------10-10-7-7-8-8-7-7-7-8-7-|--8--------------------------7-7-7-7-------------------------|
-------------------------------|-------------------------------|-------------------------------|-----------------3--2---2--0---|--0--------------5--3---3--0---|--0--0-0-0-0-0-0------0------0-|
-------------------------------------------------------------|-------------------------------------------------------------|-------------------------------------------------------------|-------------------------------------------------------------|--8--8-8-12-12-8-8-10-10-8-8---------10-10-7-7-8-8-7-7-7-8-7-|--8--------------------------7-7-7-7-------------------------|
-------------------------------------|-------------------------------------|-------------------------------------|-----------------------3--2---2--0---|--0--------------------5--3---3--0---|--0--0-0-0-0-0-0-0-0-0------0------0-|
-------------------------------------------------------------|-------------------------------------------------------------|-------------------------------------------------------------|-------------------------------------------------------------|--8--8-8-12-12-8-8-10-10-8-8---------10-10-7-7-8-8-7-7-7-8-7-|--8--------------------------7-7-7-7-------------------------|
-------------------------------|-------------------------------|-------------------------------|-----------------3--2---2--0---|--0--------------5--3---3--0---|--0--0-0-0-0-0-0------0------0-|
-------------------------------------------------------------|-------------------------------------------------------------|-------------------------------------------------------------|-------------------------------------------------------------|--8--8-8-12-12-8-8-10-10-8-8---------10-10-7-7-8-8-7-7-7-8-7-|--8--------------------------7-7-7-7-------------------------|
--------------------|--------------------------------|--------------------|--------------------------------|--------------------|--------------------------------|--0--------8--------|--10----------------------------|--0--------8--------|--10----------8-10-8-7-8-10-8-7-|--0--------8--------|--10----------------------------|
--------------------------------------|-------------------------------------|--------------------------------------|-------------------------------------|--------------------------------------|-------------------------------------|--8-----------------------------------|--7----------------------------------|--8----8---10-------8-10-8-7-8-10-8-7-|--7----7---8-------8-10-8-7-8-10-8-7-|--8--8---8----8-8-8-------------------|--7--7---7---7-7-7-------------------|
-------------------------------------|--------------------------------------|-------------------------------------|--------------------------------------|-------------------------------------|--------------------------------------|--0----------------------------------|--8-----------------------------------|--0----7---8-------8-10-8-7-8-10-8-7-|--8----8---10-------8-10-8-7-8-10-8-7-|--0--0---0---0-0-0-------------------|--8--8---8----8-8-8-------------------|
-------------------------------------|-------------------------------------|-------------------------------------|-------------------------------------|-------------------------------------|-------------------------------------|--7----------------------------------|--0----------------------------------|--7----7---8-------8-10-8-7-8-10-8-7-|--0----7---8-------8-10-8-7-8-10-8-7-|--7--7---7---7-7-7-------------------|--0--0---0---0-0-0-------------------|
--------------------------------------|-------------------------------------|--------------------------------------|-------------------------------------|--------------------------------------|-------------------------------------|--8-----------------------------------|--7----------------------------------|--8----8---10-------8-10-8-7-8-10-8-7-|--7----7---8-------8-10-8-7-8-10-8-7-|--8--8---8----8-8-8-------------------|--7--7---7---7-7-7-------------------|
-------------------------------------|--------------------------------------|-------------------------------------|--------------------------------------|-------------------------------------|--------------------------------------|--0----------------------------------|--8-----------------------------------|--0----7---8-------8-10-8-7-8-10-8-7-|--8----8---10-------8-10-8-7-8-10-8-7-|--0--0---0---0-0-0-------------------|--8--8---8----8-8-8-------------------|
-------------------------------------|-------------------------------------|-------------------------------------|-------------------------------------|-------------------------------------|-------------------------------------|--7----------------------------------|--0----------------------------------|--7----7---8-------8-10-8-7-8-10-8-7-|--0----7---8-------8-10-8-7-8-10-8-7-|--7--7---7---7-7-7-------------------|--0--0---0---0-0-0-------------------|
--------------------------------|---------------------------|--------------------------------|---------------------------|--7--------------7--------------|--------3--3---------------|--7--------------7--------------|--------3--3--------5--4-0-|--5--------------5--------------|--3--3--1--1--5--5--3--2-0-|-----0-0-0-0-0-0----0-0-0-0-0-0-|--3--3--------5--5---------|
--------------------------------|---------------------------|--------------------------------|---------------------------|--7--------------7--------------|--------3--3---------------|--7--------------7--------------|--------3--3--------5--4-0-|--5--------------5--------------|--3--3--1--1--5--5--3--2-0-|-----0-0-0-0-0-0----0-0-0-0-0-0-|--3--3--------5--5---------|
--------------------------------|---------------------------|--------------------------------|---------------------------|--7--------------7--------------|--------3--3---------------|--7--------------7--------------|--------3--3--------5--4-0-|--5--------------5--------------|--3--3--1--1--5--5--3--2-0-|-----0-0-0-0-0-0----0-0-0-0-0-0-|--3--3--------5--5---------|
--------------------------------|---------------------------|--------------------------------|---------------------------|--7--------------7--------------|--------3--3---------------|--7--------------7--------------|--------3--3--------5--4-0-|--5--------------5--------------|--3--3--1--1--5--5--3--2-0-|-----0-0-0-0-0-0----0-0-0-0-0-0-|--3--3--------5--5---------|
-----------------------------------------|-----------------------------------------|-----------------------------------------|-----------------------------------------|-----------------------------------------|--0-0-0-0-0----0-0-0-0-0----0-0-0-0-0----|
------------------------------------------------------------------------|------------------------------------------------------------------------|------------------------------------------------------------------------|------------------------------------------------------------------------|------------------------------------------------------------------------|------0-0-0-----0-0-0-----0-0-0-------0-0-0-0-0----0-0-0-0-0------------|
-----------------------------------------|-----------------------------------------|-----------------------------------------|-----------------------------------------|-----------------------------------------|--0-0-0-0-0----0-0-0-0-0----0-0-0-0-0----|
------------------------------------------------------------------------|------------------------------------------------------------------------|------------------------------------------------------------------------|------------------------------------------------------------------------|------------------------------------------------------------------------|------0-0-0-----0-0-0-----0-0-0-------0-0-0-0-0----0-0-0-0-0------------|
-----------------------------------------|-----------------------------------------|-----------------------------------------|-----------------------------------------|-----------------------------------------|--0-0-0-0-0----0-0-0-0-0----0-0-0-0-0----|
------------------------------------------------------------------------|------------------------------------------------------------------------|------------------------------------------------------------------------|------------------------------------------------------------------------|------------------------------------------------------------------------|------0-0-0-----0-0-0-----0-0-0-------0-0-0-0-0----0-0-0-0-0------------|
-----------------------------------------|-----------------------------------------|-----------------------------------------|-----------------------------------------|-----------------------------------------|--0-0-0-0-0----0-0-0-0-0----0-0-0-0-0----|
------------------------------------------------------------------------|------------------------------------------------------------------------|------------------------------------------------------------------------|------------------------------------------------------------------------|------------------------------------------------------------------------|------0-0-0-----0-0-0-----0-0-0-------0-0-0-0-0----0-0-0-0-0------------|
---------------------------------|-------------------------------------|---------------------------------|-------------------------------------|---------------------------------|-------------------------------------|---------------------------------|-----------------------3--2---2--0---|------------------0-------0------|--0--------------------5--3---3--0---|--0-0-0-0-0-------0-------0------|--0--0-0-0-0-0-0-0-0-0------0------0-|
-------------------------------------------------------------|-------------------------------------------------------------|-------------------------------------------------------------|-------------------------------------------------------------|--8--8-8-12-12-8-8-10-10-8-8---------10-10-7-7-8-8-7-7-7-8-7-|--8--------------------------7-7-7-7-------------------------|
-------------------------------|-------------------------------|-------------------------------|-----------------3--2---2--0---|--0--------------5--3---3--0---|--0--0-0-0-0-0-0------0------0-|
-------------------------------------------------------------|-------------------------------------------------------------|-------------------------------------------------------------|-------------------------------------------------------------|--8--8-8-12-12-8-8-10-10-8-8---------10-10-7-7-8-8-7-7-7-8-7-|--8--------------------------7-7-7-7-------------------------|
-------------------------------------|-------------------------------------|-------------------------------------|-----------------------3--2---2--0---|--0--------------------5--3---3--0---|--0--0-0-0-0-0-0-0-0-0------0------0-|
-------------------------------------------------------------|-------------------------------------------------------------|-------------------------------------------------------------|-------------------------------------------------------------|--8--8-8-12-12-8-8-10-10-8-8---------10-10-7-7-8-8-7-7-7-8-7-|--8--------------------------7-7-7-7-------------------------|
-------------------------------|-------------------------------|-------------------------------|-----------------3--2---2--0---|--0--------------5--3---3--0---|--0--0-0-0-0-0-0------0------0-|
-------------------------------------------------------------|-------------------------------------------------------------|-------------------------------------------------------------|-------------------------------------------------------------|--8--8-8-12-12-8-8-10-10-8-8---------10-10-7-7-8-8-7-7-7-8-7-|--8--------------------------7-7-7-7-------------------------|
--------------------|--------------------------------|--------------------|--------------------------------|--------------------|--------------------------------|--0--------8--------|--10----------------------------|--0--------8--------|--10----------8-10-8-7-8-10-8-7-|--0--------8--------|--10----------------------------|
--------------------------------------|-------------------------------------|--------------------------------------|-------------------------------------|--------------------------------------|-------------------------------------|--8-----------------------------------|--7----------------------------------|--8----8---10-------8-10-8-7-8-10-8-7-|--7----7---8-------8-10-8-7-8-10-8-7-|--8--8---8----8-8-8-------------------|--7--7---7---7-7-7-------------------|
-------------------------------------|--------------------------------------|-------------------------------------|--------------------------------------|-------------------------------------|--------------------------------------|--0----------------------------------|--8-----------------------------------|--0----7---8-------8-10-8-7-8-10-8-7-|--8----8---10-------8-10-8-7-8-10-8-7-|--0--0---0---0-0-0-------------------|--8--8---8----8-8-8-------------------|
-------------------------------------|-------------------------------------|-------------------------------------|-------------------------------------|-------------------------------------|-------------------------------------|--7----------------------------------|--0----------------------------------|--7----7---8-------8-10-8-7-8-10-8-7-|--0----7---8-------8-10-8-7-8-10-8-7-|--7--7---7---7-7-7-------------------|--0--0---0---0-0-0-------------------|
--------------------------------------|-------------------------------------|--------------------------------------|-------------------------------------|--------------------------------------|-------------------------------------|--8-----------------------------------|--7----------------------------------|--8----8---10-------8-10-8-7-8-10-8-7-|--7----7---8-------8-10-8-7-8-10-8-7-|--8--8---8----8-8-8-------------------|--7--7---7---7-7-7-------------------|
-------------------------------------|--------------------------------------|-------------------------------------|--------------------------------------|-------------------------------------|--------------------------------------|--0----------------------------------|--8-----------------------------------|--0----7---8-------8-10-8-7-8-10-8-7-|--8----8---10-------8-10-8-7-8-10-8-7-|--0--0---0---0-0-0-------------------|--8--8---8----8-8-8-------------------|
-------------------------------------|-------------------------------------||-------------------------------------|-------------------------------------||-------------------------------------|-------------------------------------||--7----------------------------------|--0----------------------------------||--7----7---8-------8-10-8-7-8-10-8-7-|--0----7---8-------8-10-8-7-8-10-8-7-||--7--7---7---7-7-7-------------------|--0--0---0---0-0-0-------------------||
Tap to rate this tab
 
# A B C D E F G H I J K L M N O P Q R S T U V W X Y Z