Goodbye tab with lyrics by Sundays - Easy chords and tabs for guitar

Sundays – Goodbye tab

The SUNDAYS: Goodbye

Tune your guitar into open E:  E B E G# B E

Intro

||----||---------------------||||----||---------------------||||----||-------------------0-||||----||-------------10-12---||||----||-------10-12---------||||--0-||-0h12~---------------|| \__________x 4_______/
verse chords
-0---0---0---0---0----------|-0---0---0---0---0----------|-0---0---0---0---0----------|-5---7---0---0---0----------|-5---7---0---0---2----------|-5---7---0---0---0----------|
Verse 1, part 1: Play twice
||----0---0---0-|----0---0---0-|----0---0---0-|----------------------||||--------------|--------------|--------------|------------------0---||||--------------|--------------|--------------|----------------0---0-||||--5---5---5---|--7---7---7---|--0-------0---|------0-----0h2-------||||--------------|--------------|------0-------|--0h2---0h2-----------||||--------------|--------------|--------------|----------------------||
Verse 1, part 2 : Play x4
||--------------|--------------|--------------|----------------------||||--------------|--------------|--------------|------------------0---||||----0---0---0-|----0---0---0-|----0---0---0-|----------------0---0-||||--5---5---5---|--7---7---7---|--0-------0---|------0-----0h2-------||||--------------|--------------|------0-------|--0h2---0h2-----------||||--------------|--------------|--------------|----------------------||
Bridge 1: Play once
||--------------|--------------|--------------|--------------||||--------------|--------------|--------------|--5-----------||||--5-----------|--0-----------|--3-----------|--------------||||------5---5---|------4---4---|------5---5---|------4---4---||||----5---5---5-|----5---5---5-|----5---5---5-|----5---5---5-||||--------------|--------------|--------------|--------------||
||--5-----------|--------0---------0-----||||--------------|------0---0-----0---0---||||----0---0---0-|----------------------0-||||------5---5---|--4h5-------4h5---------||||--------------|------------------------||||--------------|------------------------||
Verse 2, part 1: play once
||------------------|------------------|----------------|----------------||||--5-5-5-5-5-5-5-8-|--5-5-5-5-5-5-5-8-|--5-5-5-5-5-5-8-|--5-5-5-5-5-9-8-||||------------------|------------------|----------------|----------------||||------------------|------------------|----------------|----------------||||------------------|------------------|----------------|----------------||||------------------|------------------|----------------|----------------||
||------------------|-----------------|----------------|----------------||||--5-5-5-5-5-5-5-8-|--5-5-5-5-5-5-12-|--5-5-5-5-5-5-8-|--5-5-5-5-5-9-8-||||------------------|-----------------|----------------|----------------||||------------------|-----------------|----------------|----------------||||------------------|-----------------|----------------|----------------||||------------------|-----------------|----------------|----------------||
||--------0-------|--------0-------|--------0-------|--------0-------||||--------5/8-9-8-|--------5/8-9-8-|--------5/8-9-8-|--------5/8-9-8-||||--3-5-3---------|--3-5-3---------|----------------|--3-5-3---------||||----------------|----------------|--4-5-4---------|----------------||||----------------|----------------|----------------|----------------||||----------------|----------------|----------------|----------------||
||---------------------------------------------------------------||||--5-5-5-7-5-5-7-5-9-5-5-7-7-5-7-9-5-5-5-5-7-5-9-5-5/12-12-10-9-||||---------------------------------------------------------------||||---------------------------------------------------------------||||---------------------------------------------------------------||||---------------------------------------------------------------||
Bridge 2, part 1: Play 4x
||--------------|--------------|||--------------|--------------|||--------------|--------------|||--5---5---5---|--4---4---4---|||----5---5---5-|----5---5---5-|||--------------|--------------|
Bridge 2, part 2: Play 8x
||----------------------|||----------------------|||--------------------0-|||--------------10-12---|||--------10-12---------|||--0h12~---------------|
Verse 3
||--------------|--------------|-----------------|--------------||||----7---7---7-|----9---9---9-|----10---10---10-|----9---9---9-||||--------------|--------------|-----------------|--------------||||--0---0---0---|--0---0---0---|--0----0----0----|--0---0-------||||--------------|--------------|-----------------|----------0---||||--------------|--------------|-----------------|--------------||
||--------------|--------------|--------------------|--------------||||----7---7---7-|----9---9---9-|-----10----10----10-|----9---9---9-||||--------------|--------------|--------------------|--------------||||--0---0---0---|--0---0---0---|--------------------|--0---0---0---||||--------------|--------------|--10----10----10----|--------------||||--------------|--------------|--------------------|--------------||
||--------------------|--------------------|----7---7---7-|----7---7---7-||||-----10----10----10-|-----10----10----10-|--------------|--------------||||--------------------|--------------------|--------------|--------------||||--------------------|--------------------|--0---0---0---|--0---0---0---||||--10----10----10----|--10----10----10----|--------------|--------------||||--------------------|--------------------|--------------|--------------||
Bridge 3
||--------------|--------------|--------------|--------------||||--------------|--------------|--------------|--5-----------||||--5-----------|--0-----------|--3-----------|--------------||||------5---5---|------4---4---|------5---5---|------4---4---||||----5---5---5-|----5---5---5-|----5---5---5-|----5---5---5-||||--------------|--------------|--------------|--------------||
||--5-----------|--------0---------0-----||||--------------|------0---0-----0---0---||||----0---0---0-|----------------------0-||||------5---5---|--4h5-------4h5---------||||--------------|------------------------||||--------------|------------------------||
Ending solo, play something along these lines w/ improv||--0-0-0-0-0-0-0-0-|-0-0-0-0---0-0-0-0-0-|--0-0-0-0-0-0-0---0-0-0-|||--4h5-5-5-5-5-5-5-|-4h5-5-5/8-8-8-5-5-5-|--4h5-5-5-5-5-5/9-9-9-8-|||------------------|---------------------|------------------------|||------------------|---------------------|------------------------|||------------------|---------------------|------------------------|||------------------|---------------------|------------------------|
second guitar plays these notes||----|----|-----|-------||----|-----|------|-------||||--5-|--5-|--/8-|--/9-8-||--5-|--/8-|--/12-|--/9-8-||||----|----|-----|-------||----|-----|------|-------||||----|----|-----|-------||----|-----|------|-------||||----|----|-----|-------||----|-----|------|-------||||----|----|-----|-------||----|-----|------|-------||
||----|----|------|-------||----|-----|------|----||||--5-|--5-|--/12-|--/9-8-||--5-|--/8-|--/12-|--5-||||----|----|------|-------||----|-----|------|----||||----|----|------|-------||----|-----|------|----||||----|----|------|-------||----|-----|------|----||||----|----|------|-------||----|-----|------|----||
||--------|----------|----------|----||||--5-4-2-|--5-4-2-0-|--5-4-2-0-|--5-||||--------|----------|----------|----||||--------|----------|----------|----||||--------|----------|----------|----||||--------|----------|----------|----||
||----|-----|----|----------------------||||--5-|--/8-|--5-|------------------0---||||----|-----|----|----------------0---0-||||----|-----|----|------0-----0h2-------||||----|-----|----|--0h2---0h2-----------||||----|-----|----|----------------------||
Please rate this tab:
x1.0