Sungha Jung - Livin On A Prayer tab


           bon jovi-  Livin' on a Prayer acoustic                               
                                           
part1 E||--0-----------------------|--------------------------|B||--0-----------------------|--------------------------|G||--0-----------------------|--------------------------|D||-----2-----0-----------0--|-----2-----0-----------0--|A||--------2-----------2-----|--------2-----------2-----|E||--0-----------0--0--------|--0-----------0--0--------|
--0-----------------------|--0-----------------------|--1-----------------------|--3-----------------------|--0-----------------------|--2-----------------------|-----2-----0-----------0--|--2--2-----0-----------0--|--------2-----------2-----|--------2-----------2-----|--0-----------0--0--------|--0-----------0--0--------|
--0-----------------------|--------------------------|--0-----------------------|--------------------------|--0-----------------------|--------------------------|-----2-----0-----------0--|-----2-----0-----------0--|--------2-----------2-----|--------2-----------2-----|--0-----------0--0--------|--0-----------0--0--------|
--3--3--2p-0--0-----0--0--|--------------------------|-----------------3--------|-----0--------------------|--------------------------|--------------------------|-----2-----0-----------0--|-----2-----0-----------0--|--------2-----------2-----|--------2-----------2-----|--0-----------0--0--------|--0-----------0--0--------|
--3--3--2--0--0--------2h-|--3--2-----0--0-----------|--------------------------|--------------------0-----|--------------------------|--------------------------|-----2-----0-----------0--|-----2-----0-----------0--|--------2-----------2-----|--------2-----------2-----|--0-----------0--0--------|--0-----------0--0--------| FIRST ENDING
--------------------------|--------------------------| --------------------------|--3--------------0--------|--2--0--------------------|-----------------------2--|--------------------------|--4--------------0--0--0--|--3--3--3--3--3--3--3--3/-|--5--5--5--5--5-----------|--------------------------|--------------------------|
INTRO --------------------------|--------------------------| -----0--------------------|--------------------------|--------------------------|--------------------------|-----2-----0-----------0--|-----2-----0-----------0--|--------2-----------2-----|--------2-----------2-----|--0-----------0--0--------|--0-----------0--0--------|
1 FIRST VERSE --3--3--2p-0--0-----0--0--|--------------------------|-----------------3--------|-----0--------------------| --------------------------|--------------------------|-----2-----0-----------0--|-----2-----0-----------0--|--------2-----------2-----|--------2-----------2-----|--0-----------0--0--------|--0-----------0--0--------|
--3--3--2--0--0--------2h-|--3--2-----0--0-----------|--------------------------|--------------------0-----|--------------------------|--------------------------|-----2-----0-----------0--|-----2-----0-----------0--|--------2-----------2-----|--------2-----------2-----|--0-----------0--0--------|--0-----------0--0--------| 2 SECOND ENDING
--------------------------|--------------------------| --------------------------|--------------0-----------|--2--0--------------------|--------0-----------0h-2/-|--------------------------|-----4-----4-----4--------|--3--3--3--3--3--3--3--3/-|--5-----------------------|--------------------------|--------------------------|
-------------------------|-------------------------|-0----------------------| ---0---------------------|-------------0--3--3--0--|----------3----x--3p-0--|-2-----------------------|-------------------------|----------2----x--2-----|----2-----0-----------0--|----2-----0-----0-----0--|----------0----0--0-----|-------2-----------2-----|-------2-----------2-----|-3--2--0----------------|-0-----------0--0--------|-0-----------0-----------|------------------------|
--------0----0----x--0--|----0--0--0-------------|---------0----0----x--0--|-3-----------0----x--1--|----1--1--1--3----3p-0--|--3-----------0----x--1--|-------------0----x--0--|----0--0--0--2----2-----|--------------0----x--0--|----3h4------2----x--2--|----2--2--2--0----0-----|-----3h4------2----x--2--|-------------2----x--3--|----3--3--3-------------|--------------2----x--3--|-------------0----------|------------------------|--------------0----------|
----0--0--0-------------|-------0---------------|-----------------0--0--0--|----1--1--1--3----3p-0--|--3---------0----------|--------------1--1--1--1--|----0--0--0--2----2-----|--2----2----0----2p-0--|--2p-0-----0--0--0--0--0--|----2--2--2--0----0-----|--0---------2----2-----|-----2--2--2--2--2--2--2--|----3--3--3-------------|-----------------------|--3--3--3--3--3--3--3--3--|------------------------|------------0----0-----|--------------------------|
--3---2---0--0--x-------|--3-------3----3-----3--|----3--2----0---------|--3---3---3--3--x----x--|--0----x--1----1--x--3--|----3--3----3----3----|--2---2---2--2--x----x--|--0----x--0----0--x--2--|----2--2----2----2----|--0---0---0--0--x----x--|--2----x--2----2--x--0--|----0--0----0----0----|----------------x----x--|--2----x--3----3--x-----|----------------------|----------------x-------|--0---------------------|----------------------|
-7-------8-----8------8--|-----8--7---------------|--3--3/-5--3----3-----3--|------x--8-----8---x--8--|-----8--8----8----10----|--0--------1----1--x--3--|-0----x--9-----9---x--7--|-----7--7----7----7-----|--0--------0----0--x--2--|-0----x--10----10--x--0--|--0--0--0----0----0-----|--2--------2----2--x--0--|------x--10----10--x-----|------------------------|--2--------3----3--x-----|-3-------8-----8---------|------------------------|--0----------------------|
-----3--2----0---------|--7-------8-----8------8--|-----8--7---------------|-----3--3----3----3----|-------x--8-----8---x--8--|-----8--8----8----10----|-----2--2----2----2----|--0----x--9-----9---x--7--|-----7--7----7----7-----|--0--0--0----0----0----|--0----x--10----10--x--0--|--0--0--0----0----0-----|-----------------------|-------x--10----10--x-----|------------------------|-----------------------|--3-------8-----8---------|------------------------|
--0--0--------------------|--------------------------|--0--0--------------------|--------------------------|--0--0--------------------|--------------------------|--2--------0-----------0--|-----2-----0-----------0--|--2-----2-----------2-----|--------2-----------2-----|--0-----------0--0--------|--0-----------0--0--------|
--------------------------|--0-----------------------|--------------------------|--3-----------------------|-----0--------------------|--2-----------------------|-----------0-----------0--|-----2-----0-----------0--|--------2-----------2-----|--------2-----------2-----|--0-----------0--0--------|--0-----------0--0--------|
--0-----------------------|--5-6-5-3-5-3---3-------------------|--0-----------------------|--------------5---5-3---3-----------|--0-----------------------|----------------------4---4-2-4-----|-----2-----0-----------0--|--------------------------------2-0-|--------2-----------2-----|------------------------------------|--0-----------0--0--------|------------------------------------|
--3--3--2p-0--0-----0--0--|--------------------------|-----------------3--------|-----0--------------------|--------------------------|--------------------------|-----2-----0-----------0--|-----2-----0-----------0--|--------2-----------2-----|--------2-----------2-----|--0-----------0--0--------|--0-----------0--0--------|
--3--3--2--0--0--------2h-|--3--2-----0--0-----------|--------------------------|--------------------0-----|--------------------------|--------------------------|-----2-----0-----------0--|-----2-----0-----------0--|--------2-----------2-----|--------2-----------2-----|--0-----------0--0--------|--0-----------0--0--------|
--------------------------|--------------------------|--------------------------|--3--------------0--------|--2--0--------------------|-----------------------2--|--------------------------|--4--------------0--0--0--|--3--3--3--3--3--3--3--3/-|--5--5--5--5--5-----------|--------------------------|--------------------------|
--------------------------|--------------------------|-----0--------------------|--------------------------|--------------------------|--------------------------|-----2-----0-----------0--|-----2-----0-----------0--|--------2-----------2-----|--------2-----------2-----|--0-----------0--0--------|--0-----------0--0--------|
--3--3--2p-0--0-----0--0--|--------------------------|-----------------3--------|-----0--------------------|--------------------------|--------------------------|-----2-----0-----------0--|-----2-----0-----------0--|--------2-----------2-----|--------2-----------2-----|--0-----------0--0--------|--0-----------0--0--------|
--3--3--2--0--0--------2h-|--3--2-----0--0-----------|--------------------------|--------------------0-----|--------------------------|--------------------------|-----2-----0-----------0--|-----2-----0-----------0--|--------2-----------2-----|--------2-----------2-----|--0-----------0--0--------|--0-----------0--0--------|
--------------------------|--------------------------|--------------------------|--3--------------0--------|--2--0--------------------|-----------------------2--|--------------------------|--4--------------0--0--0--|--3--3--3--3--3--3--3--3/-|--5--5--5--5--5-----------|--------------------------|--------------------------|
------------------------|-------------------------|--0----------------------|---0--------------------|-------------0--3--3--0--|-----------3----x--3p-0--|------------------------|-------------------------|-----------2----x--2-----|---2-----0-----------0--|----2-----0-----0-----0--|-----------0----0--0-----|------2-----------2-----|-------2-----------2-----|--3--2--0----------------|0-----------0--0--------|-0-----------0-----------|-------------------------|
---------0----0----x--0--|----0--0--0-------------|---------0----0----x--0--|--3-----------0----x--1--|----1--1--1--3----3p-0--|--3-----------0----x--1--|--------------0----x--0--|----0--0--0--2----2-----|--------------0----x--0--|-----3h4------2----x--2--|----2--2--2--0----0-----|-----3h4------2----x--2--|--------------2----x--3--|----3--3--3-------------|--------------2----x--3--|--------------0----------|------------------------|--------------0----------|
----0--0--0-------------|-------0---------------|-----------------0--0--0--|----1--1--1--3----3p-0--|--3---------0----------|--------------1--1--1--1--|----0--0--0--2----2-----|--2----2----0----2p-0--|--2p-0-----0--0--0--0--0--|----2--2--2--0----0-----|--0---------2----2-----|-----2--2--2--2--2--2--2--|----3--3--3-------------|-----------------------|--3--3--3--3--3--3--3--3--|------------------------|------------0----0-----|--------------------------|
--3---2---0--0--x-------|--3-------3----3-----3--|----3--2----0---------|--3---3---3--3--x----x--|--0----x--1----1--x--3--|----3--3----3----3----|--2---2---2--2--x----x--|--0----x--0----0--x--2--|----2--2----2----2----|--0---0---0--0--x----x--|--2----x--2----2--x--0--|----0--0----0----0----|----------------x----x--|--2----x--3----3--x-----|----------------------|----------------x-------|--0---------------------|----------------------|
--7-------8-----8------8--|----8--7---------------|--3--3/-5--3----3-----3--|-------x--8-----8---x--8--|----8--8----8----10----|--0--------1----1--x--3--|--0----x--9-----9---x--7--|----7--7----7----7-----|--0--------0----0--x--2--|--0----x--10----10--x--0--|-0--0--0----0----0-----|--2--------2----2--x--0--|-------x--10----10--x-----|-----------------------|--2--------3----3--x-----|--3-------8-----8---------|-----------------------|--0----------------------|
-----3--2----0---------|--7-------8-----8------8--|-----8--7---------------|-----3--3----3----3----|-------x--8-----8---x--8--|-----8--8----8----10----|-----2--2----2----2----|--0----x--9-----9---x--7--|-----7--7----7----7-----|--0--0--0----0----0----|--0----x--10----10--x--0--|--0--0--0----0----0-----|-----------------------|-------x--10----10--x-----|------------------------|-----------------------|--3-------8-----8---------|------------------------|
--8-----8--8----------------|---------------------------|--8-----8--8-----12-----12--|-----10--8-----------------|--9-----9--9-----9------9---|-----9---9-----------------|----------------------------|---------------------------|----------------------------|---------------------------|--8--8--8--8--8--8---8--8---|--8--8---8--8--8--8--8--8--|
--0-----0-----3--5--7-----|--5-------------3h5p3------|-----3--------------------|-----3--3~------------7----|--------------------------|---------------------------|--------------------------|--0--0--0----0-------------|--------------3--3--3--3--|---------------------------|--0--0--0--0--------------|---------------------------|
-3----------------0--0--|----------------------|--3--3-----8-----8------2h3-|----3-----1----3--------|---3--3----3--3--3----|--0--0--x--8-----8---x------|-------4----------------|------2----2--2--2----|--0--0--x--9-----9---x------|---------------------0--|---0--0----0--0--0----|--2--2--x--10----10--x------|----------3----3--3-----|----------------------|--2-----x--10--------x------|-3--3--3----------------|----------------------|--0--------8----------------|
--2-----------------0h-2--|-3----------------------|-------0----------------|-----3--------------------|----3-----1p---0--------|-------0----------------|--------2~----------------|-------4----------0--0--|-------0----------------|--0--0--0--0--0--0--0--0--|------------------------|--2----2----------------|--------------------------|----------3----3--3-----|--2------------------2--|--------------------------|-3--3--3----------------|--0---------0--0--0--0--|
-----------------0--0--0--|--0-------2----2--2-----|-------0----0---------|--------------0--0--0--0--|--1----x--3----3--3p-0--|--3----3----0----x----|--------0--0--0--0--0--0--|--0----x--2----2--2-----|--2----2----0----x----|--2--2--2--2--2--2--2--2--|--2----x--0----0--0-----|--0----0----2----x----|--2--2--2--2--2--2--2--2--|--3----x----------------|------------2----x----|--0--0--0--0--0--0--0--0--|------------------------|------------0---------|
--0---0---0--0---0---0--|--2---2---0--2--x-------|--3-------3----3-----3--|--1---1---3--1---3---1--|--3---3---3--3--x----x--|--0----x--1----1--x--3--|--0---0---0--0---0---0--|--2---2---2--2--x----x--|--0----x--0----0--x--2--|--2---2---2--2---2---2--|--0---0---0--0--x----x--|--2----x--2----2--x--0--|--3-------3--3---3---3--|----------------x----x--|--2----x--3----3--x-----|------------------------|----------------x-------|--0---------------------|
----3--2----0---------|--7-------8-----8------8--|-----8--7---------------|----3--3----3----3----|-------x--8-----8---x--8--|-----8--8----8----10----|----2--2----2----2----|--0----x--9-----9---x--7--|-----7--7----7----7-----|----0--0----0----0----|--0----x--10----10--x--0--|--0--0--0----0----0-----|----------------------|-------x--10----10--x-----|------------------------|----------------------|--3-------8-----8---------|------------------------|
--3--3/-5--3----3-----3--|-----3--2----0---------|--7-------8-----8------8--|--0--------1----1--x--3--|-----3--3----3----3----|-------x--8-----8---x--8--|--0--------0----0--x--2--|-----2--2----2----2----|--0----x--9-----9---x--7--|--2--------2----2--x--0--|--0--0--0----0----0----|--0----x--10----10--x--0--|--2--------3----3--x-----|-----------------------|-------x--10----10--x-----|--0----------------------|-----------------------|--3-------8-----8---------|
-----8--7-------------|---------------------|--------------0--------|-----8--8----8--------|------8h---10~-------|-----------0-----------|-----7--7----7--------|------7--------------|--0-----0--------------|--0--0--0----0--------|------0--------------|--2--2-----------------|----------------------|---------------------|-----------------------|----------------------|---------------------|--0--------------------|
-----------------12----------|---------------------|--------5------------|---------12----------12------|--7------------------|-----5---------------|--12---------12--------------|---------------------|--5------------------|-----------------------------|-------5----7--------|---------------------|------7----------------------|---------------------|---------------------|-----------------------------|---------------------|---------------------|
--0----------------||--0----------------||--0----------------||--2----------------||--2----------------||--0----------------||
Tap to rate this tab
 
# A B C D E F G H I J K L M N O P Q R S T U V W X Y Z