Right Here Waiting tab ver. 2 with lyrics by Sungha Jung - Easy chords and tabs for guitar

Sungha Jung – Right Here Waiting tab ver. 2

Hello!
So, as you may know...I just started UG...
Here's my first Sungha Jung arrangement..
My uncle helped me with it, but unfortunately, I cannot tab the bridge part..I am just 
intermediate at this thing :)))
anyways, happy playing!





Intro:

--------------3--3--1-p-0----|----------------0--1--0--|---------------------------3-|----------3--3-----------|-----------0-----------------|-------0-----------------|--------2--------------------|----0--------------------|--0--3-----------------------|-2-----------------------|-----------------------------|-------------------------|
-----------------0-|-------------------------|--------1--1--3----|----3-----1--p--0--------|-----------0-------|-------0-----------2--0--|-----2-------------|-------------------------|--0----------------|-------------------------|-------------------|-1-----------3-----------|
-----------3--3--1-p-0----|----------------0--1--0--|------------------------3-|----------3--3-----------|--------0-----------------|-------0-----------------|-----2--------------------|----0--------------------|--3-----------------------|-2-----------------------|--------------------------|-------------------------|
--------------0--0-h-1-|----0---------------------|--------1--3-----------|----------3-----1-p-0--1--|-----------0-----------|-------0------------------|-----2-----------------|--------------------------|--0--------------------|--------------------------|-----------------------|-1-----------3------------|
-------------------|-----------------|-----------0--1----|----------0--1~--|--------2----------|-------2---------|-----2-------------|----2------------|--0----------------|-0---------------|-----------------0-|-----------------|
Verse:
-------------------------|----0--------0-----------|-----------------1--3--3-|----------------3--1--3--|--------0-----0----------|-------------------------|-----2-------------------|-------0-----------------|--3--------3-------------|-------------------------|-------------------------|-1--------1--------------|
------------------------|-----------------------------|-----1----------------0-|-1-----3--0------------------|--------2~---------2----|-2--------0--------0-h-2--0--|--0------------0~-------|----0-----------0------------|------------0-----------|-----------------------------|------------------------|-3-----------3---------------|
-------------------------|----0--------0-----------|-----------------1--3--3-|----------------3--1--3--|--------0-----0----------|-------------------------|-----2-------------------|-------0-----------------|--3--------3-------------|-------------------------|-------------------------|-1--------1--------------|
------------------------|-------------------------|-----1----------------0-|-1-----3--0--------1--1--|--------2~---------2----|-2--------0-----------0--|--0------------0~-------|----0-----------0--------|------------0-----------|-------------------------|------------------------|-3-----------3-----------|
Refrain:
|-------------|---------------------0--1-|-------0-------------------------|--------------1-h-3-------|----------1-----3----------------|--------0-----0-----------|---------------------------------|-----2--------------------|----0--------------------0-------|--0--------0--------------|----------------------2-----2----|--------------------------|-1-----------0-----3-------------|
|--------------|---------------------0--1-|-------0--------------------------|--------1-----1-h-3-------|----------1-----1-----------------|--------0-----0-----------|-----------------------------0----|-----2--------------------|----0---------------------0-------|--0--------0--------------|-------------------0-h-2----------|--------------------------|-3-----------1--------------------|
Chorus:
-----------3--3--1--0----|----------------0--1--0--|-----------1--1--1--1--3-|----------3--3-----------|--------0----------------|-------0--0--0-----------|-----2-------------------|----0--------------------|--3----------------------|-------------------------|-------------------------|-3-----------------------|
-----------------0-|-------------------------|--------1--1--3----|----3-----1--p--0--------|-----------0-------|-------0-----------2--0--|-----2-------------|-------------------------|--0----------------|-------------------------|-------------------|-1-----------3-----------|
-----------3--3--1--0----|----------------0--1--0--|-----------1--1--1--1--3-|----------3--3-----------|--------0----------------|-------0--0--0-----------|-----2-------------------|----0--------------------|--3----------------------|-------------------------|-------------------------|-3-----------------------|
--------------0--0-h-1-|----0---------------------|--------1--3-----------|----------3-----1-p-0--1--|-----------0-----------|-------0------------------|-----2-----------------|--------------------------|--0--------------------|--------------------------|-----------------------|-1-----------3------------|
Interlude:
-------------------|-----------------|-----------0--1----|----------0--1~--|--------2----------|-------2---------|-----2-------------|----2------------|--0----------------|-0---------------|-----------------0-|-----------------|
Verse:
-------------------------|----0--------0-----------|-----------------1--3--3-|----------------3--1--3--|--------0-----0----------|-------------------------|-----2-------------------|-------0-----------------|--3--------3-------------|-------------------------|-------------------------|-1--------1--------------|
------------------------|-----------------------------|-----1----------------0-|-1-----3--0------------------|--------2~---------2----|-2--------0--------0-h-2--0--|--0------------0~-------|----0-----------0------------|------------0-----------|-----------------------------|------------------------|-3-----------3---------------|
-------------------------|----0--------1-p-0--------|-----------------1--3--3-|--------------------1--3--|--------0-----0----------|--------------------------|-----2-------------------|-------0------------------|--3--------3-------------|--------------------------|-------------------------|-1--------1---------------|
------------------------|-------------------------|-----1----------------0-|-1-----3--0--------1--1--|--------2~---------2----|-2--------0-----------0--|--0------------0~-------|----0-----------0--------|------------0-----------|-------------------------|------------------------|-3-----------3-----------|
Refrain:
|-------------|---------------------0--1-|-------0-------------------------|--------------1-h-3-------|----------1-----3----------------|--------0-----0-----------|---------------------------------|-----2--------------------|----0--------------------0-------|--0--------0--------------|----------------------2-----2----|--------------------------|-1-----------0-----3-------------|
|--------------|---------------------0--1-|-------0--------------------------|--------1-----1-h-3-------|----------1-----1-----------------|--------0-----0-----------|-----------------------------0----|-----2--------------------|----0---------------------0-------|--0--------0--------------|-------------------0-h-2----------|--------------------------|-1-----------0--------------------|
Chorus:
-----------3--3--1--0----|----------------0--1--0--|-----------1--1--1--1--3-|----------3--3-----------|--------0----------------|-------0--0--0-----------|-----2-------------------|----0--------------------|--3----------------------|-------------------------|-------------------------|-3-----------------------|
-----------------0-|-------------------------|--------1--1--3----|----3-----1--p--0--------|-----------0-------|-------0-----------2--0--|-----2-------------|-------------------------|--0----------------|-------------------------|-------------------|-1-----------3-----------|
-----------3--3--1--0----|----------------0--1--0--|-----------1--1--1--1--3-|----------3--3-----------|--------0----------------|-------0--0--0-----------|-----2-------------------|----0--------------------|--3----------------------|-------------------------|-------------------------|-3-----------------------|
--------------0--0-h-1-|----0---------------------|--------1--3-----------|----------3-----1-p-0--1--|-----------0-----------|-------0------------------|-----2-----------------|--------------------------|--0--------------------|--------------------------|-----------------------|-1-----------3------------|
Interlude:
-----------3--3--1--0----|----------------0--1--0--|-----------1--1--1--1--3-|----------3--3-----------|--------0----------------|-------0--0--0-----------|-----2-------------------|----0--------------------|--3----------------------|-------------------------|-------------------------|-3-----------------------|
-----------------0-|-------------------------|--------1--1--3----|----3-----1--p--0--------|-----------0-------|-------0-----------2--0--|-----2-------------|-------------------------|--0----------------|-------------------------|-------------------|-1-----------3-----------|
-----------3--3--1--0----|----------------0--1--0--|-----------1--1--1--1--3-|----------3--3-----------|--------0----------------|-------0--0--0-----------|-----2-------------------|----0--------------------|--3----------------------|-------------------------|-------------------------|-3-----------------------|
--------------0--0-h-1-|----0---------------------|--------1--3-----------|----------3-----1-p-0--1--|-----------0-----------|-------0------------------|-----2-----------------|--------------------------|--0--------------------|--------------------------|-----------------------|-1-----------3------------|
Refrain:
|-------------|---------------------0--1-|-------0-------------------------|--------------1-h-3-------|----------1-----3----------------|--------0-----0-----------|---------------------------------|-----2--------------------|----0--------------------0-------|--0--------0--------------|----------------------2-----2----|--------------------------|-1-----------0-----3-------------|
|--------------|---------------------0--1-|-------0--------------------------|--------1-----1-h-3-------|----------1-----1-----------------|--------0-----0-----------|-----------------------------0----|-----2--------------------|----0---------------------0-------|--0--------0--------------|-------------------0-h-2----------|--------------------------|-3-----------1--------------------|
Chorus:
-----------3--3--1--0----|----------------0--1--0--|-----------1--1--1--1--3-|----------3--3-----------|--------0----------------|-------0--0--0-----------|-----2-------------------|----0--------------------|--3----------------------|-------------------------|-------------------------|-3-----------------------|
-----------------0-|-------------------------|--------1--1--3----|----3-----1--p--0--------|-----------0-------|-------0-----------2--0--|-----2-------------|-------------------------|--0----------------|-------------------------|-------------------|-1-----------3-----------|
-----------3--3--1--0----|----------------0--1--0--|-----------1--1--1--1--3-|----------3--3-----------|--------0----------------|-------0--0--0-----------|-----2-------------------|----0--------------------|--3----------------------|-------------------------|-------------------------|-3-----------------------|
--------------0--0-h-1-|----0---------------------|--------1--3-----------|----------3-----1-p-0--1--|-----------0-----------|-------0------------------|-----2-----------------|--------------------------|--0--------------------|--------------------------|-----------------------|-1-----------3------------|
Please rate this tab:
x1.0