Superjoint Ritual – The Alcoholik tab

The Alcholik §uperjoint Ritual

---------------------------------------------
---------------------------------------------
---------------------------------------------
---------------------------------------------
---------------------------------------------
-0-3/5/3-0--0-0-0----------------------------


-------------------------------------------------------------------------------------------------------------------------------------------------------------------------------------2-5/7/5-2--2-2-2-----------------------------0-3/5/3-0--0-0-0----------------------------
x4------------------|----------------------------------------------------------|----------------------------------------------------------|----------------------------------------------------------|------------------------------3h5p3------2-5/7/5-2--2-2-2-|-/8-8-8-8-8-8--7-7-7------3-5-------5-3--0-3/5/3-0--0-0-0-|-/6-6-6-6-6-6--5-5-5--3-5---------------
x3--------------------|---------------------------------------------|---------------------------------------------|----------------------------------3h5p3------|------------------------------3-5-------5-3--|-x-x-x-x-x-x--/8-8-8------3-5----------------|-x-x-x-x-x-x- /6-6-6-----
x2 pm.........--------------------|-------------------------------------------------------------|-------------------------------------------------------------|--------------------------------------------------3h5p3------|----------------------------------------------3-5-------5-3--|-9/8-8-8/7-7-7/6-6-6/5-5--2-2-2-2-2-2-----3-5----------------|-7/6-6-6/5-5-5/4-4-4/3-3--0-0-0-0-0-0----
pm.......... repeat till end--------------------|---------------------------------------------|---------------------------------------------|---------------------------------------------|--------------------------5-6-7-5-6-7--------|--------------------------3-4-5-3-4-5--------|-------------------------
rrrr | r r y y a n n \\ | // r r y y a a n n n \\|// rrr y a a n n n \|/ r r y aaaaa n n n / \ r r y a a n n
Please rate this tab:
x1.0