Superjoint Ritual - Death Threat tab

death threat

Symbols:
\  = slide
b  = bend

Riff 1a

|----------------------------------||----------------------------------||----------------------------------||----------------------------------||-4-44-44-7-77-77-5-55-55-6-66-66--||-2-22-22-5-55-55-3-33-33-4-44-44--|
Fill
|---------------------------||---------------------------||---------------------------||---------------------------||-4\\\-4-4\\\-4-4-4\\\-4-4\-||-2\\\-2-2\\\-2-2-2\\\-2-2\-|
Riff 1b
|----------------------------------||----------------------------------||----------------------------------||----------------------------------||-4-4-4-4-7-7-7-7-5-5-5-5-6-6-6-6--||-2-2-2-2-5-5-5-5-3-3-3-3-4-4-4-4--|
Riff 1c
|-----------------------------||-----------------------------||-----------------------------||-----------------------------||-4-44-44-7-77-77-5-55-55-----||-2-22-22-5-55-55-3-33-33-4b--|
Riff 1d (high speed)
|-----------------||-----------------||-----------------||-----------------||-4444777755556b--||-2222555533334b--|
Riff 1e
|------------------||------------------||------------------||------------------||-4444777755556-6--||-2222555533334-4--|
Fill II
|-----------------||-----------------||-----------------||-----------------||-2----2----2-\\\-||-0--0-0--0-0-\\\-| . .
Rhythm Fill
|---------------------||---------------------||---------------------||---------------------||-2-2-2-2-222-2-2-----||-0-0-0-0-000-0-0-etc-| . . . . ... . .
Tap to rate this tab
 
# A B C D E F G H I J K L M N O P Q R S T U V W X Y Z