Svartsot - Havets Plage tab

this is my first tab... Be forgiving

Legend
L - tied note
x - dead note
h - hammer on/pull off
b - bend
s - slide
~ - vibrato
g - ghost note
> - accentuated note
t - trill
M - palm mute
. - staccato
P - popping (bass)
S - slapping (bass)
+ - tapping
W - wide vibrato
< - fade in
w - whammy bar
= - tremolo picking
v - brush up
^ - brush down
V - pick stroke up
n - pick stroke down



E |----------------|----------------------------|----------------------------|B |----------------|----------------------------|----------------------------|G |----------------|----------------------------|----------------------------|D |----------------|----------------------------|----------------------------|A |----------------|--------------------5--6----|--7-------------------------|E |----------------|--------------------3--4----|--5-------------------------|
----------------------------|----------------------------|----------------------------|----------------------------|----------------------------|----------------------------|----------------------------|----------------------------|--------------------5--6----|--7-------------------------|--------------------3--4----|--5-------------------------|
----------------------------|-------|----------------------------|----------------------------|-------|----------------------------|----------------------------|-------|----------------------------|----------------------------|-------|----------------------------|--------------------5--6----|--7L---|--7L----------7-----5--6----|--------------------3--4----|--5L---|--5L----------5-----3--4----|
----------------------------|----------------------------|----------------------------|----------------------------|----------------------------|----------------------------|----------------------------|----------------------------|--x--7--x--7--x--7--x--7----|--x--7--x--7--x--7--5--6----|--x--5--x--5--x--5--x--5----|--x--5--x--5--x--5--3--4----|
----------------------------|----------------------------|----------------------------|----------------------------|----------------------------|----------------------------|----------------------------|----------------------------|--x--7--x--7--x--7--x--7----|--x--7--x--7--x--7--5--6----|--x--5--x--5--x--5--x--5----|--x--5--x--5--x--5--3--4----|
----------------------------|----------------------------|----------------------------|----------------------------|----------------------------|----------------------------|----------------------------|----------------------------|--x--7--x--7--x--7--x--7----|--x--7--x--7--x--7--5--6----|--x--5--x--5--x--5--x--5----|--x--5--x--5--x--5--3--4----|
----------------------------|----------------------------|----------------------------|----------------------------|----------------------------|----------------------------|----------------------------|----------------------------|--x--7--x--7--x--7--x--7----|--x--7--x--7--x--7--5--6----|--x--5--x--5--x--5--x--5----|--x--5--x--5--x--5--3--4----|
----------------------------------------------------|----------------------------------------------------|----------------------------------------------------|----------------------------------------------------|--------------7h-5--7h-5--8-----7-----5-------------|--5-----5-----------------------------------8-------|
----------------------------------------------------|----------------------------------------------------|----------------------------------------------------|----------------------------------------------------|--------------7h-5--7h-5--10----8-----7-------------|--5-----5-----------------------------------10------|
----------------------------------------------------|----------------------------------------------------|----------------------------------------------------|----------------------------------------------------|--------------7h-5h-7h-5--8-----7-----5-------------|--5-----5-----------------------------------8-------|
----------------------------------------------------|----------------------------------------------------|----------------------------------------------------|----------------------------------------------------|--------------7h-5h-7h-5--10----8-----7-------------|--5-----5-----------------------------------10------|
--------------------------------------------------------------------------------|--------------------------------------------------------------------------------|--------------------------9h----7h----9h----7-----10----------9-----------7h-9h-|--7-----------7-----------------------------------------------------------------|--------------------------------------------------------------------------------|--------------------------------------------------------------------------------|
--------------------|--------------------|7-------------------|------10------------|--------------------|--------------------|
---------------------------------------------------------------------------------|---------------------------------------------------------------------------------|--------------------------9h----7h----9h----7-----12----------10----------9h-10--|h--7-----------7------------------------------------------------------------------|---------------------------------------------------------------------------------|---------------------------------------------------------------------------------|
--------------------|--------------------|9-------------------|------12------------|--------------------|--------------------|
--------------------------------------------------------------------------------|--------------------------------------------------------------------------------|--------------------------9h----7h----9h----7-----10----------9-----------7h-9h-|--7-----------7-----------------------------------------------------------------|--------------------------------------------------------------------------------|--------------------------------------------------------------------------------|
--------------------|--------------------|7-------------------|------10------------|--------------------|--------------------|
---------------------------------------------------------------------------------|---------------------------------------------------------------------------------|--------------------------9h----7h----9h----7-----12----------10----------9h-10--|h--7-----------7------------------------------------------------------------------|---------------------------------------------------------------------------------|---------------------------------------------------------------------------------|
--------------------|----------------------------|----------------------------|--------------------|----------------------------|----------------------------|9-------------------|----------------------------|----------------------------|------12------------|----------------------------|----------------------------|--------------------|--5--6--x--7--x--7--x--7----|--x--7--x--7--x--7--x--7----|--------------------|--3--4--x--5--x--5--x--5----|--x--5--x--5--x--5--x--5----|
----------------------------|----------------------------|----------------------------|----------------------------|----------------------------|----------------------------|----------------------------|----------------------------|--5--6--x--7--x--7--x--7----|--x--7--x--7--x--7--x--7----|--3--4--x--5--x--5--x--5----|--x--5--x--5--x--5--x--5----|
----------------------------|----------------------------|----------------------------|----------------------------|----------------------------|----------------------------|----------------------------|----------------------------|--5--6--x--7--x--7--x--7----|--x--7--x--7--x--7--x--7----|--3--4--x--5--x--5--x--5----|--x--5--x--5--x--5--x--5----|
----------------------------|----------------------------|----------------------------|----------------------------|----------------------------|----------------------------|----------------------------|----------------------------|--5--6--x--7--x--7--x--7----|--x--7--x--7--5--4--3--2L---|--3--4--x--5--x--5--x--5----|--x--5--x--5--3--2--1--0L---|
----------------------------|----------------|----------------------------|----------------------------|----------------|----------------------------|----------------------------|----------------|----------------------------|----------------------------|----------------|----------------------------|--2L----------2-----5--6----|----------------|--------------------5--6----|--0L----------0-----3--4----|----------------|--------------------3--4----|
----------------------------|----------------------------|----------------------------|----------------------------|----------------------------|----------------------------|----------------------------|----------------------------|--7-------------------------|--------------------5--6----|--5-------------------------|--------------------3--4----|
----------------------------|----------------------------|-------|----------------------------|----------------------------|-------|----------------------------|----------------------------|-------|----------------------------|----------------------------|-------|--7-------------------------|--------------------5--6----|--7L---|--5-------------------------|--------------------3--4----|--5L---|
----------------------------|----------------------------|----------------------------|----------------------------|--7L----------7-----5--6----|--5L----------5-----3--4----|
----------------------------------------------------|----------------------------------------------------|----------------------------------------------------|----------------------------------------------------|--------------7h-5--7h-5--8-----7-----5-------------|--5-----5-----------------------------------8-------|
----------------------------------------------------|----------------------------------------------------|----------------------------------------------------|----------------------------------------------------|--------------7h-5--7h-5--10----8-----7-------------|--5-----5-----------------------------------10------|
----------------------------------------------------|----------------------------------------------------|----------------------------------------------------|----------------------------------------------------|--------------7h-5h-7h-5--8-----7-----5-------------|--5-----5-----------------------------------8-------|
----------------------------------------------------|----------------------------------------------------|----------------------------------------------------|----------------------------------------------------|--------------7h-5h-7h-5--10----8-----7-------------|--5-----5-----------------------------------10------|
--------------------------------------------------------------------------------|--------------------------------------------------------------------------------|--------------------------9h----7h----9h----7-----10----------9-----------7h-9h-|--7-----------7-----------------------------------------------------------------|--------------------------------------------------------------------------------|--------------------------------------------------------------------------------|
--------------------|--------------------|7-------------------|------10------------|--------------------|--------------------|
---------------------------------------------------------------------------------|---------------------------------------------------------------------------------|--------------------------9h----7h----9h----7-----12----------10----------9h-10--|h--7-----------7------------------------------------------------------------------|---------------------------------------------------------------------------------|---------------------------------------------------------------------------------|
--------------------|--------------------|9-------------------|------12------------|--------------------|--------------------|
--------------------------------------------------------------------------------|--------------------------------------------------------------------------------|--------------------------9h----7h----9h----7-----10----------9-----------7h-9h-|--7-----------7-----------------------------------------------------------------|--------------------------------------------------------------------------------|--------------------------------------------------------------------------------|
--------------------|--------------------|7-------------------|------10------------|--------------------|--------------------|
---------------------------------------------------------------------------------|---------------------------------------------------------------------------------|--------------------------9h----7h----9h----7-----12----------10----------9h-10--|h--7-----------7------------------------------------------------------------------|---------------------------------------------------------------------------------|---------------------------------------------------------------------------------|
--------------------|----------------------------||--------------------|----------------------------||9-------------------|----------------------------||------12------------|----------------------------||--------------------|--5--6--7-------------------||--------------------|--3--4--5-------------------||
Tap to rate this tab
 
# A B C D E F G H I J K L M N O P Q R S T U V W X Y Z