Swell - Comfort 47 tab

Song : COMFORT 47
Artist : SWELL
Album : SWELL (1990/1991)
official website : www.swellsongs.com


Intro :-8-/-9---------------------------|-8-/-9---------------------------|---------------------------------|---------------------------------|---------------------------------|----------------------slide-part-|
|
---------------------------------|-----1-------1-------1-------1-2-|-----1-------1-------1-------1-2-|-----1-------1-------1-------1-2-|---------------------------------|-2-2---2-2-2---2-2-2---2-2-2-----| x4
Verse (intro riff) :All at once, there was no,Pennies to count…Pretty soon, I’ll be too,Desperate to sleep… -9-------9-----9---/-12------------| -------9-----9---9-----------------| -----------------------------------| -----------------------------------| -----------------------------------|
-----------------------------------|slide-partI was inside of the carI was afraid of the roadI was inside of the car ---------------------------------| -----1-------1-------1-------1-0-| -----1-------1-------1-------1-0-| -----1-------1-------1-------1-0-| ---------------------------------| -2-2---2-2-2---2-2-2---2-2-2-----|I was the meat on the road
-12------12-----\-10------10----10----\9-|------12-----12-------10-----10----10----|-----------------------------------------|-----------------------------------------|-----------------------------------------|------------------------------slide-part-|
|
-0-----------------3--------2-----3-|-0-----------------3--------3-----3-|-1-----------------0--------2-----2-|-2-----------------0--------0-----0-|-2-----------------2----------------|-0-----------------3----------------|
---------------------------------|-----1-------1-------1-------1-2-|-----1-------1-------1-------1-2-|-----1-------1-------1-------1-2-|---------------------------------|-2-2---2-2-2---2-2-2---2-2-2-----| x2
Well I see buttercups, And so it should read… Yes I see buttercups, And so it should read… I was inside of the car I was afraid of the road I was inside of the car
---------------------------------| -----1-------1-------1-------1-0-| -----1-------1-------1-------1-0-| -----1-------1-------1-------1-0-| ---------------------------------| -2-2---2-2-2---2-2-2---2-2-2-----|I was just meat on the road
-0-----------------3--------2-----3-|-0-----------------3--------3-----3-|-1-----------------0--------2-----2-|-2-----------------0--------0-----0-|-2-----------------2----------------|-0-----------------3----------------|
---------------------------------|-----1-------1-------1-------1-2-|-----1-------1-------1-------1-2-|-----1-------1-------1-------1-2-|---------------------------------|-2-2---2-2-2---2-2-2---2-2-2-----|
-0-----------------3--------2-----3---2------------------------------|-0-----------------3--------3-----3---2------------------------------|-1-----------------0--------2-----2---3------------------------------|-2-----------------0--------0-----0---4------------------------------|-2-----------------2------------------4------------------------------|-0-----------------3------------------2------------------------------|
-0-----------------7--------6--------|-0-----------------7--------6--------|-1-----------------8--------7--------|-2-----------------9--------8--------|-2-----------------9--------8--------|-0-----------------7--------6--------| x12
---------------------------------|-----1-------1-------1-------1-0-|-----1-------1-------1-------1-0-|-----1-------1-------1-------1-0-|---------------------------------|-2-2---2-2-2---2-2-2---2-2-2-----|
-0-----------------3--------2-----3-|-0-----------------3--------3-----3-|-1-----------------0--------2-----2-|-2-----------------0--------0-----0-|-2-----------------2----------------|-0-----------------3----------------|
---------------------------------|-----1-------1-------1-------1-2-|-----1-------1-------1-------1-2-|-----1-------1-------1-------1-2-|---------------------------------|-2-2---2-2-2---2-2-2---2-2-2-----|
-0-----------------3--------2-----3-|-0-----------------3--------3-----3-|-1-----------------0--------2-----2-|-2-----------------0--------0-----0-|-2-----------------2----------------|-0-----------------3----------------|
-0-----------------3--------2-----3---2------------------------------|-0-----------------3--------3-----3---2------------------------------|-1-----------------0--------2-----2---3------------------------------|-2-----------------0--------0-----0---4------------------------------|-2-----------------2------------------4------------------------------|-0-----------------3------------------2------------------------------|
Tap to rate this tab
 
# A B C D E F G H I J K L M N O P Q R S T U V W X Y Z