Symphony X – Masquerade 98 tab

Symphony X
Masquerade

Tuned To D (1 Whole Step Down)

Intro with orchestra------------10---------12---------13---------12---------10----|-13-10-9-10----10-9-10----10-9-10----10-9-10----10-9-10----10-|--------------------------------------------------------------|--------------------------------------------------------------|--------------------------------------------------------------|--------------------------------------------------------------|
----------------------------------------10---------12---------|-9-10-13-10-9-10-12-10-9-10--13-10-9-10----10-9-10----10-9-10-|--------------------------------------------------------------|--------------------------------------------------------------|--------------------------------------------------------------|--------------------------------------------------------------|
-13---------12---------10-------------------------------------|----10-9-10----10-9-10----10-9-10-13-10-9-10-12-10-9-10-10----|vib--------------------------------------------------------------|--------------------------------------------------------------|--------------------------------------------------------------|--------------------------------------------------------------|
--------------------- -------18-21-23-21-19-18---19-21-19-18-|--------------------- ----20---------------------------------|-11vib-/13big vib---- -20------------------------------------|--------------------- ---------------------------------------|--------------------- ---------------------------------------|--------------------- ---------------------------------------|
-------------13-14-13----------------------------------------|-21-19-18-------------16-14----------------------------------|----------20----------------16-14-13--14-16-14-13------------|--------------------------------------------------16-14-13---|----------------------------------------------------------16-|-------------------------------------------------------------|
------------------------------- ------------------------------|------------------------------- ---------12-/15-15--13h15p13--|------------------------------- ---13-14----------------------|-13-14-13---------------------- ------------------------------|----------16-14-12------------- ------------------------------|-------------------16-14-12---- ------------------------------|
--------------------------------------------------------------|-12------------------/13-13-12h13p12--------------------------|----14-----/11-12/14----------------14-12---------12----------|-------------------------------------------/14-15----14-12-15-|--------------------------------------------------------------|--------------------------------------------------------------|
----------------------/17-15--14b1--15b2r-15h17p15-14------22-|------------------------------------------------------15------|---/11--/12--/13--/14------------------------------------14---|13------------------------------------------------------------|--------------------------------------------------------------|--------------------------------------------------------------|
Drum fill
Rythm 1 (x2)----------------------------------------------8-----6--------|----------------------------------------------8-----6--------|----------------------------------------------10----8--------|-5--------------------------------------------10----8--------|-5--------------------------------------------8-----6--------|-3---3-3-3--3-3-3--3-3-3--3-3-3--3-3-3--3-3-3-8-----6--------|
vamp------------------------------------ ------------------------|------------6----------------------- ------------------------|--8-----------8-------3--/--6------- ------------------------|-----8----------8-----3--/--6------- ----5-------------------|----------------------1--/--4------- ----5-------------------|------------------------------------ ----3-------------------|
Main riff (x2)-------------------------------------------------------------|-------------------------------------------------------------|-------------------------------------------------------------|-5-----------------------------------------------------------|-5-----------------------------------------------------------|-3--3-3-3--3-3-3--3-3-3--3-3-3--3-3-3--3-3-3--3-3-3--3-3-3---|
-------------------------------------------------------------|-------------------------------------------------------------|----------------------0-12-0-13-0-17-0-16-0-10-12-13-12-vib--|-------------------------------------------------------------|-------------------------------------------------------------|-3-3-3--3-3-3---3-3-3----------------------------------------|
-------------------------------------------------------------|-------------------------------------------------------------|-------------------------------------------------------------|-------------------------------------------------------------|-------------------------------------------------------------|--3-3-3---3-3-3---3-3-3---3-3-3---3-3-3---3-3-3---3-3-3------|
-------------------------------------------------------------|----------8-----7--------------------------------------------|-7------8-----7--------8-----7-------------------------------|-7----8-----7--------8-----7----------8---6------------------|-5----------------10-----9---------10-----6------------------|--------------------------------11--------4------------------|
Chorus 1 (x2)-------------------------------------------------------------|-------------------------------------------------------------|-------------------------------------------------------------|-9-----------------------------------------------------------|-7----------------------------------8------------------------|-0-0-0---0-0-0-0-0---0-0-0---0-0-0--6---0-0-0----0-0-0-0-0---|
-------------------------------------------------------------|-------------------------------------------------------------|-------------------------------------------------------------|----------------------5--------------------------------------|-----------------8----3-3-3------3-3-3-3-3-----3-3-3---3-3-3-|-0-0-0----0-0-0--6-------------------------------------------|
prechorus-------------------------------------------------- ----------|-------------------------------------------------- ----------|-------------------------------------------------- ----7-----|-------------------------------------------------- ----7-----|-5---4---------------------------------------3---- ----5-----|-3---2-2-2----2-2-2-2-2----2-2-2----2-2-2----1---- ----------|
Chorus 2----------------------pm..------------------------------------|--------------------------------------------------------------|---------------------I=x4==I---I=x2==I---------2--------------|-I=x4==I---I=x4==I-----------------------------2--------------|---------------------6-6-6-6---2-2-2-2---2--1--0-2-2-2--2-2-2-|-1-1-1-1---4-4-4-4--------------------------------------------|
--------------------------------------------------------------|--------------------------------------------------------------|--------------------3-----------------------------------------|---3----------------3-----------------------------------------|-2-3----------------1-1-1-1--1-1-1-1--1-1-1-1-0-0-0-0---------|---1-1-1-1--1-1-1-1-----------------------------------4-4-4-4-|
-------------------------------------------------------------|-------------------------------------------------------------|-------------------------------4-----------------------------|-------------------------------4-----------------------------|----------3-3-3-3--0-0-0-0-----2-----------------------------|-0-0-0-0-----------------------------------------------------|
Fill 1----------------------------4--4-----------------------------|----------------------------4----4---------------------------|----------------------------6--------6-----------7-----------|-2--------------------------6--------------------7-----------|-2-------1----2----3---/6---4--------------------5-----------|-0---2-3-----------------------------------------------------|
Variation of the main part-------------------------------------------------------------|---------------------------------------8---8---8-------------|---------------------------------------7---7---7-------------|-5-------------------------------------5---5---5-----5-------|-5---------------------------------------------------5-------|-3--3-3-3--3-3-3--3-3-3--3-3-3--3-3-3----------------3-3-3---|
-------------------------------------------------------------|-------------------------------------------------------------|-----------------------------------5---4---------------------|--------------------------5----6-----------3h5h6-5vib--------|-------------------------------------------------------------|-3-3-3--3-3-3---3-3-3---3----3---3---3---3-------------------|
-------------------------------------------------------------|-------------------------------------------------------------|-------------------------------------------------------------|-------------------------------------------------------------|-------------------------------------------------------------|--3-3-3---3-3-3---3-3-3---3-3-3---3-3-3---3-3-3---3-3-3------|
-------------------------------------------------------------|----------8-----7--------------------------------------------|-7------8-----7--------8-----7-------------------------------|-7----8-----7--------8-----7----------8---6------------------|-5----------------10-----9---------10-----6------------------|--------------------------------11--------4------------------|
-------------------------------------------------------------|-------------------------------------------------------------|-------------------------------------------------------------|-5-----------------------------------------------------------|-5-----------------------------------------------------------|-3--3-3-3--3-3-3--3-3-3--3-3-3--3-3-3--3-3-3--3-3-3--3-3-3---|
--------------------------|--------------------------|--------------------------|--------------------------|--------------------------|--3-3-3---3-3-3---3-3-3---|
16-15-13-11-10--10--------------------------------------------|--------------13--13-12---------------------------------------|-----------------------13-12-10-------------------------------|-------------------------------13-12-10-12-10-9---------------|-----------------------------------------------11-10-8--------|------------------------------------------------------11-10-8-|
-------------------------------------------------------------|-------------------------------------------------------------|-------------------------------------------------------------|--5----------------------------------------------------------|--5----------------------------------------------------------|--3--3-3-3---3-3-3---3-3-3---3-3-3---3-3-3---3-3-3---3-3-3---|
-------------------------------------------------------------|----------8-----7--------------------------------------------|-7------8-----7--------8-----7-------------------------------|-7----8-----7--------8-----7----------8---6------------------|-5----------------10-----9---------10-----6------------------|--------------------------------11--------4------------------|
Play Chorus 1 once Play Chorus 2 once
Punchs-------------------------------------------------------------|-------------------------------------------------------------|-------------------------------4-----------------------------|-2--------------4--------------2----------2-2-2--4-----------|-2--------------2--------2-2-2-------------------2-----------|-0--------0-0-0----------------------------------------------|
--------------------------------------------------------------|--------------------------------------------------------------|---------7------------------------------7---------------------|---------7----------------7-------------7------------7--------|---------5--------5-5-5---7-------------5------5-5-5-7--------|3..-5-5-5--------------------5-------5-5-5--------------5--------|
SOLO 1
---------7----------------7----------------7---------------5-|-5-8p7h8---8p7h8--5-8p7h8---8p7h8----7p5h7---7p5h7---7p5h7---|-----------------------------------8---------------8---------|-------------------------------------------------------------|-------------------------------------------------------------|-------------------------------------------------------------|
----------------8----------------8-----------------8---------|-7p5h7--6-9p8h9---9p8h9--6-9p8h9---9p8h9-----8p6h8---8p6h8---|-------------------------------------------8-----------------|-------------------------------------------------------------|-------------------------------------------------------------|-------------------------------------------------------------|
-------------------------------------------------------------|---------8-------------------9--------------------9----------|-5-8p7h8---8p7h8---6-10p8h10---10p8h10--6-10p8h10---10p8h10--|-------------------------------------------------------------|-------------------------------------------------------------|-------------------------------------------------------------|
--------------------------------------------------------------|-----------------------------------------------------10-------|-----------8--------------------8----------7-11p9h11----11p9h-|-6-10p8h10---10p8h10--6-10p8h10---10p8h10---------------------|--------------------------------------------------------------|--------------------------------------------------------------|
-------------------------------------------------------------|-------------10----------------------------------------------|11-7-11p9h11----11p9h11-/12--------------------11----14-11---|----------------------------12-------------/12----12---------|--------------------------------10vib------------------------|-------------------------------------------------------------|
-------------14-----17-14-------t22p20t22p20p17--t20p17t20p17-|-13----15-13----15--------15----------------------------------|----14-----------------------14-------------------------------|--------------------------------------------------------------|--------------------------------------------------------------|--------------------------------------------------------------|
p14----t20/22/20p17p14---------------------------------------|-----------------------t15-----------------------------------|---------------------------t14-------------------------------|-------------------------------t16p12------------------------|-------------------------------------------------------------|-------------------------------------------------------------|
Please rate this tab:
x1.0