Symphony X - Inferno Unleash The Fire tab

This Tab is from a guitar pro file so i take no credit for the tab


Inferno ( Unleash The Fire )

                                                                      Symphony X


Intro

D||---------------------------------------|A||---------------------------------------|F||--13-12-10-12-0-0-0-0-10-8-7-0-8-7-5-0-|C||---------------------------------------|G||---------------------------------------|D||---------------------------------------|
|---------------------------------------|----------------------------------||---------------------------------------|----------------------------------||--13-12-10-12-0-0-0-0-10-8-7-0-8-7-5-0-|--7-5-4-0-1-0-1-0-0-0-1-0-1-4-1-0-||---------------------------------------|----------------------------------||---------------------------------------|----------------------------------||---------------------------------------|----------------------------------|
|----------------------------------|---------------------------------------||----------------------------------|---------------------------------------||--7-5-4-0-1-0-1-0-0-0-1-0-1-4-1-0-|--13-12-10-12-0-0-0-0-10-8-7-0-8-7-5-0-||----------------------------------|---------------------------------------||----------------------------------|---------------------------------------||----------------------------------|---------------------------------------|
|-----------------------------------------||-----------------------------------------||--13-12-10-12-0-0-0-0-10-8-7-0-12-10-8-0-||-----------------------------------------||-----------------------------------------||-----------------------------------------|
|--------------------16-15-13----------------------||--15-13-12-------------------16-15-13-15-13-12----||-----------13-12-10----------------------------13-||--------------------------------------------------||--------------------------------------------------||--------------------------------------------------|
|--------------------------------------------------||--------------------------------------------------||--12-10-13-12-10----------------------------10-12-||-----------------13-12-10----------10-12-13-------||--------------------------14-11-14----------------||--------------------------------------------------|
Main Melody|-------------------------------------------------||-------------------------------------------------||--13-12-10-12-0-0-0-0-8-7-5-0-10-8-7-0-12-10-8-0-||-------------------------------------------------||-------------------------------------------------||-------------------------------------------------|
|----------------------------------------||----------------------15-13-12----------||--13-12-10-12-0-0-0-0----------13-12-10-||----------------------------------------||----------------------------------------||----------------------------------------|
|-------------------------------------------------||-------------------------------------------------||--13-12-10-12-0-0-0-0-8-7-5-0-10-8-7-0-12-10-8-0-||-------------------------------------------------||-------------------------------------------------||-------------------------------------------------|
|----------------------16-15-13----------------------------||-------------------------------16-15-13-15-13-12----------||--13-12-10-12-0-0-0-0----------------------------13-12-10-||----------------------------------------------------------||----------------------------------------------------------||----------------------------------------------------------|
|-------------------------------------------------||-------------------------------------------------||--13-12-10-12-0-0-0-0-8-7-5-0-10-8-7-0-12-10-8-0-||-------------------------------------------------||-------------------------------------------------||-------------------------------------------------|
|----------------------------------------||----------------------15-13-12----------||--13-12-10-12-0-0-0-0----------13-12-10-||----------------------------------------||----------------------------------------||----------------------------------------|
|-------------------------------------------------||-------------------------------------------------||--13-12-10-12-0-0-0-0-8-7-5-0-10-8-7-0-12-10-8-0-||-------------------------------------------------||-------------------------------------------------||-------------------------------------------------|
|----------------------16-15-13----------------------------||-------------------------------16-15-13-15-13-12----------||--13-12-10-12-0-0-0-0----------------------------13-12-10-||----------------------------------------------------------||----------------------------------------------------------||----------------------------------------------------------|
|---------------------------------------------|-------------------------||---------------------------------------------|-------------------------||--13-12-10-----------------------------------|--3-3-3-3-3--------------||-----------13-12-10-12-10--------------------|--3-3-3-3-3--------------||--------------------------14-11-10----10~----|--1-1-1-1-1--------------||-----------------------------------13--------|-------------------------|
Pre-Verse |--3--| |--3---------------------------------||----------------------|----------------------------|---------------------------||----------------------|----------------------------|---------------------------||-----3----------------|----------------------------|--3-3-3-3-3----------------||-----3----6----2------|----------4--3--------------|--3-3-3-3-3----------------||-----1----6----2------|----------------6--5--2-----|--1-1-1-1-1----------------||----------4----0------|-------------------------4--|---------------------------|
|----------------------|----------------------------||----------------------|----------------------------||----------4-----------|--3-3-3-3-3-------3-3-3-----||-----6----4----5------|--3-3-3-3-3-------3-3-3-----||-----6----2----5------|--1-1-1-1-1-------1-1-1-----||-----4---------3------|----------------------------|
|----------------------||----------------------||-----3----------------||-----3----6----2------||-----1----6----2------||----------4----0------|
|---5---| |----3----| |----3------------||-----------------------------------|----------------------------------||-----------------------------------|----------------------------------||-----------------------------------|----------------------------------||-----------------------------------|----------------------------------||--1-1-1-1-1--------------1-2-1-----|-----------------1----2----4------||--------------4-4-4------------4-2-|--1----2----4---------------------|
|--------------------||--------------------||--------------------||--------------------||--5~----------------||--------------------|
Verse|-------------------------------||-------------------------------||-------------------------------||-------------------------------||-------------------------------||---0--<>6----0-----1-0-1-0-1-4-|
|------------------------------|-------------------------------||------------------------------|-------------------------------||------------------------------|-------------------------------||------------------------------|-------------------------------||-------------------2-2-2--2-2-|-------------------------------||--0--<6>-----0-----0-0-0--0-0-|--0--<6>-----0-----1-0-1-0-1-4-|
|------------------------------|-------------------------------||------------------------------|-------------------------------||------------------------------|-------------------------------||------------------------------|-------------------------------||-------------------2-2-2--2-2-|-------------------------------||--0--<6>-----0-----0-0-0--0-0-|--0--<6>-----0-----1-0-1-0-1-4-|
|------------------------------|-------------------------------||------------------------------|-------------------------------||------------------------------|-------------------------------||------------------------------|-------------------------------||-------------------2-2-2--2-2-|-------------------------------||--0--<6>-----0-----0-0-0--0-0-|--0--<6>-----0-----1-0-1-0-1-4-|
|------------------------------|-------------------------------||------------------------------|-------------------------------||------------------------------|-------------------------------||------------------------------|-------------------------------||-------------------2-2-2--2-2-|-------------------------------||--0--<6>-----0-----0-0-0--0-0-|--0--<6>-----0-----1-0-1-0-1-4-|
|------------------------------|-------------------------------||------------------------------|-------------------------------||------------------------------|-------------------------------||------------------------------|-------------------------------||-------------------2-2-2--2-2-|-------------------------------||--0--<6>-----0-----0-0-0--0-0-|--0--<6>-----0-----1-0-1-0-1-4-|
|------------------------------|-------------------------------||------------------------------|-------------------------------||------------------------------|-------------------------------||------------------------------|-------------------------------||-------------------2-2-2--2-2-|-------------------------------||--0--<6>-----0-----0-0-0--0-0-|--0--<6>-----0-----1-0-1-0-1-4-|
|------------------------------|-------------------------------||------------------------------|-------------------------------||------------------------------|-------------------------------||------------------------------|-------------------------------||-------------------2-2-2--2-2-|-------------------------------||--0--<6>-----0-----0-0-0--0-0-|--0--<6>-----0-----1-0-1-0-1-4-|
|------------------------------|-------------------------------||------------------------------|-------------------------------||------------------------------|-------------------------------||------------------------------|-------------------------------||-------------------2-2-2--2-2-|-------------------------------||--0--<6>-----0-----0-0-0--0-0-|--0--<6>-----0-----1-0-1-0-1-4-|
|------------------------------|-------------------------------||------------------------------|-------------------------------||------------------------------|-------------------------------||------------------------------|-------------------------------||-------------------2-2-2--2-2-|-------------------------------||--0--<6>-----0-----0-0-0--0-0-|--0--<6>-----0-----1-0-1-0-1-4-|
|------------------------------|-------------------------------||------------------------------|-------------------------------||------------------------------|-------------------------------||------------------------------|-------------------------------||-------------------2-2-2--2-2-|-------------------------------||--0--<6>-----0-----0-0-0--0-0-|--0--<6>-----0-----1-0-1-0-1-4-|
|------------------------------|-------------------------------||------------------------------|-------------------------------||------------------------------|-------------------------------||------------------------------|-------------------------------||-------------------2-2-2--2-2-|-------------------------------||--0--<6>-----0-----0-0-0--0-0-|--0--<6>-----0-----1-0-1-0-1-4-|
|------------------------------|--------------------------||------------------------------|--------------------------||------------------------------|--------------------------||------------------------------|--------------------------||-------------------2-2-2--2-2-|--5---5---5---5---5---5---||--0--<6>-----0-----0-0-0--0-0-|--3-----------3---3---3---|
Pre Chorus
|-----------------------------------|------------------------||-----------------------------------|------------------------||-----------------------------------|------------------------||--5h-6p-5p-3-5----5h-6p-5p-3-5--6--|-----5----3-------------||-----------------------------------|---------------6--5--3--||-----------------------------------|------------------------|
|--------------------------|-----------------------------------||--------------------------|-----------------------------------||--------------------------|--2h-3p-2p-0-2----2h-3p-2p-0-2--3--||--2---2---2---2---2---2---|-----------------------------------||--0---0---0---0---0---0---|-----------------------------------||--------------------------|-----------------------------------|
Main Melody|------------------------|-------------------------------------------------||---------------4--6--8--|-------------------------------------------------||-----5----7-------------|--13-12-10-12-0-0-0-0-8-7-5-0-10-8-7-0-12-10-8-0-||------------------------|-------------------------------------------------||------------------------|-------------------------------------------------||------------------------|-------------------------------------------------|
|----------------------------------------||----------------------15-13-12----------||--13-12-10-12-0-0-0-0----------13-12-10-||----------------------------------------||----------------------------------------||----------------------------------------|
|-------------------------------------------------||-------------------------------------------------||--13-12-10-12-0-0-0-0-8-7-5-0-10-8-7-0-12-10-8-0-||-------------------------------------------------||-------------------------------------------------||-------------------------------------------------|
|----------------------16-15-13----------------------------||-------------------------------16-15-13-15-13-12----------||--13-12-10-12-0-0-0-0----------------------------13-12-10-||----------------------------------------------------------||----------------------------------------------------------||----------------------------------------------------------|
|-------------------------------------------------||-------------------------------------------------||--13-12-10-12-0-0-0-0-8-7-5-0-10-8-7-0-12-10-8-0-||-------------------------------------------------||-------------------------------------------------||-------------------------------------------------|
|----------------------------------------||----------------------15-13-12----------||--13-12-10-12-0-0-0-0----------13-12-10-||----------------------------------------||----------------------------------------||----------------------------------------|
|-------------------------------------------------||-------------------------------------------------||--13-12-10-12-0-0-0-0-8-7-5-0-10-8-7-0-12-10-8-0-||-------------------------------------------------||-------------------------------------------------||-------------------------------------------------|
|----------------------16-15-13----------------------------||-------------------------------16-15-13-15-13-12----------||--13-12-10-12-0-0-0-0----------------------------13-12-10-||----------------------------------------------------------||----------------------------------------------------------||----------------------------------------------------------|
|------------------------------------------||------------------------------------------||--13-12-10--------------------------------||-----------13-12-10-12-10-9---------------||----------------------------11-10-8-10----||------------------------------------------|
Solo 1 Lead
|-----------------------------------|-------------------------------||--------9-------------------9------|--9-10-9----9-------------<9>--||-----------------------------------|---------11--------------------||--11-------11-----11----11-----11--|---------------11-----11-------||-----------------------------------|-------------------------------||-----------------------------------|-------------------------------|
|---------------------------------------------|---------------------------------||------<9>--<8>------<8>--<9>----------9------|--10----------8------8--9--------||---------------------------------------------|---------------------------------||--11------------11------------11--11-----11--|------11--11-----11--------------||---------------------------------------------|---------------------------------||---------------------------------------------|---------------------------------|
|--3--| |--6--| |--6--| |--6--| |--6--| |--6--| |--6-------||-------14b-----16-14-13-14-16-14-13---------------------------------------------||--(9)---x---------------------------15-14-12-14-15-14-12------------------------||---------------------------------------------------------14-13-11-10-11-13-11---||--------------------------------------------------------------------------------||--------------------------------------------------------------------------------||--------------------------------------------------------------------------------|
|--6--| |--6--| |--6-| |-6-| |--6-| |--6-| |--3------||---------------------------------------------------------||---------------------------------------------------------||--10-----------------------------------------------------||-----12-11-9-11-12-11-9----------------------------------||------------------------12-11-9-8-9-11-9-8---------------||-------------------------------------------10-9-7-10-7---|
|---------------------------------||---------------------------------||---------------------------------||--------------------------(2)----||--------------------------(2)----||--<9>-------------(9)--9---------|
Solo 1 Rhythm|--------------------------------||--------------------------------||--------------------------------||--6--4--6--x--x--6--4--6--x--x--||--4--2--4--x--x--4--2--4--x--x--||--------------------------------|
|-----------------------|--------------------------------||-----------------------|--------------------------------||-----------------------|--------------------------------||--6--4--6--4--7--6--4--|--6--4--6--x--x--6--4--6--x--x--||--4--2--4--2--5--4--2--|--4--2--4--x--x--4--2--4--x--x--||-----------------------|--------------------------------|
|-----------------------------|--------------------------------||-----------------------------|--------------------------------||-----------------------------|--------------------------------||--6--4--6--5----4----3----0--|--6--4--6--x--x--6--4--6--x--x--||--4--2--4--5----4----3----0--|--4--2--4--x--x--4--2--4--x--x--||-----------------------------|--------------------------------|
|-----------------------|--------------------------------||-----------------------|--------------------------------||-----------------------|--------------------------------||--6--4--6--4--7--6--4--|--6--4--6--x--x--6--4--6--x--x--||--4--2--4--2--5--4--2--|--4--2--4--x--x--4--2--4--x--x--||-----------------------|--------------------------------|
|-----------------------------||-----------------------------||-----------------------------||--6--4--6--5----4----3----0--||--4--2--4--5----4----3----0--||-----------------------------|
Verse
|-------------------------------||-------------------------------||-------------------------------||-------------------------------||-------------------------------||--0--<6>-----0-----1-0-1-0-1-4-|
|------------------------------|-------------------------------||------------------------------|-------------------------------||------------------------------|-------------------------------||------------------------------|-------------------------------||-------------------2-2-2--2-2-|-------------------------------||--0--<6>-----0-----0-0-0--0-0-|--0--<6>-----0-----1-0-1-0-1-4-|
|------------------------------|-------------------------------||------------------------------|-------------------------------||------------------------------|-------------------------------||------------------------------|-------------------------------||-------------------2-2-2--2-2-|-------------------------------||--0--<6>-----0-----0-0-0--0-0-|--0--<6>-----0-----1-0-1-0-1-4-|
|------------------------------|-------------------------------||------------------------------|-------------------------------||------------------------------|-------------------------------||------------------------------|-------------------------------||-------------------2-2-2--2-2-|-------------------------------||--0--<6>-----0-----0-0-0--0-0-|--0--<6>-----0-----1-0-1-0-1-4-|
|------------------------------|-------------------------------||------------------------------|-------------------------------||------------------------------|-------------------------------||------------------------------|-------------------------------||-------------------2-2-2--2-2-|-------------------------------||--0--<6>-----0-----0-0-0--0-0-|--0--<6>-----0-----1-0-1-0-1-4-|
|------------------------------|-------------------------------||------------------------------|-------------------------------||------------------------------|-------------------------------||------------------------------|-------------------------------||-------------------2-2-2--2-2-|-------------------------------||--0--<6>-----0-----0-0-0--0-0-|--0--<6>-----0-----1-0-1-0-1-4-|
|------------------------------|-------------------------------||------------------------------|-------------------------------||------------------------------|-------------------------------||------------------------------|-------------------------------||-------------------2-2-2--2-2-|-------------------------------||--0--<6>-----0-----0-0-0--0-0-|--0--<6>-----0-----1-0-1-0-1-4-|
|------------------------------|-------------------------------||------------------------------|-------------------------------||------------------------------|-------------------------------||------------------------------|-------------------------------||-------------------2-2-2--2-2-|-------------------------------||--0--<6>-----0-----0-0-0--0-0-|--0--<6>-----0-----1-0-1-0-1-4-|
|------------------------------|--------------------------||------------------------------|--------------------------||------------------------------|--------------------------||------------------------------|--------------------------||-------------------2-2-2--2-2-|--5---5---5---5---5---5---||--0--<6>-----0-----0-0-0--0-0-|--3---3---3---3---3---3---|
Pre-Chorus|-----------------------------------|------------------------||-----------------------------------|------------------------||-----------------------------------|------------------------||--5h-6p-5p-3-5----5h-6p-5p-3-5--6--|--L--5----3-------------||-----------------------------------|---------------6--5--3--||-----------------------------------|------------------------|
|--------------------------|-----------------------------------||--------------------------|-----------------------------------||--------------------------|--2h-3p-2p-0-2----2h-3p-2p-0-2--3--||--2---2---2---2---2---2---|-----------------------------------||--0---0---0---0---0---0---|-----------------------------------||--------------------------|-----------------------------------|
|------------------------|------------------------------||------------------------|------------------------------||-----2------------------|------------------------------||----------5----3--2-----|-----------------------6------||---------------------5--|--3--------------------4--4-4-||------------------------|--1--1-1-1--1-1-1--1-1--------|
|------------------------------|-----------------------------||------------------------------|-----------------------------||------------------------------|-----------------------------||------------------------------|--5--------------------------||--4--4-4-4--4-4-4--4-4-4--4-4-|--3--3-3-3--3-3-------3------||------------------------------|----------------4--3--1--1-1-|
|----------------------------|------------------------------||----------------------------|------------------------------||----------------------------|------------------------------||----------------------------|-----------------------3------||-----------------------6----|--6--------------------1--1-1-||--1--1-1-1--1-1-1--1-1-3----|--4--4-4-4--4-4-4--4-4--------|
|------------------------------|------------------------------||------------------------------|------------------------------||------------------------------|------------------------------||------------------------------|--5---------------------------||--1--1-1-1--1-1-1--1-1-1--1-1-|--3--3-3-3--3-3-3--3-3-3--3-3-||------------------------------|------------------------------|
|----------------------------------|------------------------------||----------------------------------|------------------------------||--6-5-3---------------------------|------------------------------||--------6-5-3-5-3-2---------------|-----------------------6------||--------------------4-3-1---------|--3--------------------4--4-4-||--------------------------4-3-1-0-|--1--1-1-1--1-1-1--1-1--------|
|------------------------------|-----------------------------||------------------------------|-----------------------------||------------------------------|-----------------------------||------------------------------|--5--------------------------||--4--4-4-4--4-4-4--4-4-4--4-4-|--3--3-3-3--3-3-------3------||------------------------------|----------------4--3--1--1-1-|
|----------------------------|------------------------------||----------------------------|------------------------------||----------------------------|------------------------------||----------------------------|-----------------------3------||-----------------------6----|--6--------------------1--1-1-||--1--1-1-1--1-1-1--1-1-3----|--4--4-4-4--4-4-4--4-4--------|
|------------------------------|------------------------------||------------------------------|------------------------------||------------------------------|------------------------------||------------------------------|--5---------------------------||--1--1-1-1--1-1-1--1-1-1--1-1-|--3--3-3-3--3-3-3--3-3-3--3-3-||------------------------------|------------------------------|
Main Melody|-------------------|-------------------------------------------------||-------------------|-------------------------------------------------||-------------------|--13-12-10-12-0-0-0-0-8-7-5-0-10-8-7-0-12-10-8-0-||--7----------------|-------------------------------------------------||--5----------------|-------------------------------------------------||-------------------|-------------------------------------------------|
|----------------------------------------||----------------------15-13-12----------||--13-12-10-12-0-0-0-0----------13-12-10-||----------------------------------------||----------------------------------------||----------------------------------------|
|-------------------------------------------------||-------------------------------------------------||--13-12-10-12-0-0-0-0-8-7-5-0-10-8-7-0-12-10-8-0-||-------------------------------------------------||-------------------------------------------------||-------------------------------------------------|
|----------------------16-15-13----------------------------||-------------------------------16-15-13-15-13-12----------||--13-12-10-12-0-0-0-0----------------------------13-12-10-||----------------------------------------------------------||----------------------------------------------------------||----------------------------------------------------------|
|-------------------------------------------------||-------------------------------------------------||--13-12-10-12-0-0-0-0-8-7-5-0-10-8-7-0-12-10-8-0-||-------------------------------------------------||-------------------------------------------------||-------------------------------------------------|
|----------------------------------------||----------------------15-13-12----------||--13-12-10-12-0-0-0-0----------13-12-10-||----------------------------------------||----------------------------------------||----------------------------------------|
|-------------------------------------------------||-------------------------------------------------||--13-12-10-12-0-0-0-0-8-7-5-0-10-8-7-0-12-10-8-0-||-------------------------------------------------||-------------------------------------------------||-------------------------------------------------|
|----------------------16-15-13----------------------------||-------------------------------16-15-13-15-13-12----------||--13-12-10-12-0-0-0-0----------------------------13-12-10-||----------------------------------------------------------||----------------------------------------------------------||----------------------------------------------------------|
|------------------------------------------|-------------------||------------------------------------------|-------------------||--13-12-10--------------------------------|-------------------||-----------13-12-10-12-10-9---------------|-------------------||----------------------------11-10-8-10----|-------------------||------------------------------------------|-------------------|
Bridge|-----------------|---------------|-----------------|----------------||-----------------|---------------|-----------------|----------------||-----------------|---------------|-----------------|----------------||-----------------|---------------|-----------------|----------------||--3--------3--5--|--6------------|-----------------|---------1------||-----------------|---------------|--1--------1--3--|--4-------------|
|-----------------|-----------------|---------------|---------------||-----------------|-----------------|---------------|---------------||-----------------|-----------------|---------------|---------------||-----------------|--------------3--|---------------|---------------||--3--------3--5--|--6--------6-----|---------------|---------------||-----------------|-----------------|--6------------|--4------------|
|-----------------|---------------|-----------------|----------------||-----------------|---------------|-----------------|----------------||-----------------|---------------|-----------------|----------------||-----------------|---------------|-----------------|----------------||--3--------3--5--|--6------------|-----------------|---------1------||-----------------|---------------|--1--------1--3--|--4-------------|
|-----------------|-----------------|---------------|---------------|--------------||-----------------|-----------------|---------------|---------------|--------------||-----------------|-----------------|---------------|---------------|--------------||-----------------|--------------3--|---------------|---------------|--------------||--3--------3--5--|--6--------6-----|---------------|---------------|--------------||-----------------|-----------------|--3------------|---------------|--4------3--4-|
Solo 2 Lead
|----------------------||----------------------||----------------------||----------------------||---------------15h-19-||----------------------|
T T T T T T T |-------5------| |-------5------| |------5-----| |-------5------------||-----------------------------------------------------------------------------||-----------------------------------------------------------------------------||---------------------------------------------15h-17-21p-17p-15---------------||-----------------------------------------------------------------------------||--22p-19-22p-19p-15-23p-19-23p-19p-15h-19-22-------------------22p-19p-15h---||-----------------------------------------------------------------------------|
T T T T T T T |--6--| |--6--| |---6--| |---6--| |---6--| |---6--| |---6--| |----||------------------15h-18-20p-18p-15-------------------15h-18-21p-18p-15----------||---------------------------------------------------------------------------------||--------15h-17-21-------------------21p-17p-15h-18-21-------------------21p-18p--||---------------------------------------------------------------------------------||--19-22--------------------------------------------------------------------------||---------------------------------------------------------------------------------|
T T T T T T |---6--| |---6--| |---6--| |--6--| |--6-| |---6--| |---6--| |---6---||------------12h-15-18p-15p-12----------------------------------------------------||--------------------------------------------------8h-11-14p-11p-8----------------||--12h-15-18-------------------18p-15p-12-----------------------------------------||-----------------------------------------8h-11-14-----------------14p-11p-8h-11--||---------------------------------------------------------------------------------||---------------------------------------------------------------------------------|
T T T T T T \3/ |---6--| |---6--| |---6--| |---6--| |--6--| |---6--|
|--------------------------------12h-15-18--------------------------||-------------------------------------------------------------------||------------12h-15-18------------------------------12h-15-18-------||-------------------------------------------------------------10----||-------------------------------------------------------------------||--12h-15-18-----------12h-15-18-----------12p-5-18-----------------|
\2/ W W \1/|------------------------------|-----------------------------||------------------------------|-----------------------20----||---------15--------12-15-11b--|---------------(11)-18-------||------------------------------|-----------------------------||------------------------------|-----------------------------||------------------------------|-----------------------------|
|---3--| |-3-| |----------------------||--19------------17p-13--------|-----------------------------------------||-----------------------14-----|-----------------------------------------||--------------------------13--|--12--12---------------------------------||------------------------------|----------10--11p-10-----10------(10)----||------------------------------|---------------------13------------------||------------------------------|-----------------------------------------|
Solo 2 Rhythm
|----------------|----------------------------||----------------|----------------------------||----------------|----------------------------||----------------|-----4----------------------||----------------|--3-------3-----3-1-3-4-3-1-||--1~------------|----------------------------|
|---------------------------|----------------------------||---------------------------|----------------------------||---------------------------|----------------------------||-----4---------------------|-----4----------------------||--3-------3-----3-3-3--3-3-|--3-------3-----3-1-3-4-3-1-||---------------------------|----------------------------|
|---------------------------|----------------------------||---------------------------|----------------------------||---------------------------|----------------------------||-----4---------------------|-----4----------------------||--3-------3-----3-3-3--3-3-|--3-------3-----3-1-3-4-3-1-||---------------------------|----------------------------|
|---------------------------|----------------------------||---------------------------|----------------------------||---------------------------|----------------------------||-----4---------------------|-----4----------------------||--3-------3-----3-3-3--3-3-|--3-------3-----3-1-3-4-3-1-||---------------------------|----------------------------|
|---------------------------|----------------------------||---------------------------|----------------------------||---------------------------|----------------------------||-----4---------------------|-----7----------------------||--3-------3-----3-3-3--3-3-|--6-------6-----6-4-6-7-6-4-||---------------------------|----------------------------|
|---------------------------|----------------------------||---------------------------|----------------------------||---------------------------|----------------------------||-----7---------------------|-----7----------------------||--6-------6-----6-6-6--6-6-|--6-------6-----6-4-6-7-6-4-||---------------------------|----------------------------|
|---------------------------|----------------------------||---------------------------|----------------------------||---------------------------|----------------------------||-----7---------------------|-----7----------------------||--6-------6-----6-6-6--6-6-|--6-------6-----6-4-6-7-6-4-||---------------------------|----------------------------|
|---------------------------|----------------------------||---------------------------|----------------------------||---------------------------|----------------------------||-----7---------------------|-----7----------------------||--6-------6-----6-6-6--6-6-|--6-------6-----6-4-6-7-6-4-||---------------------------|----------------------------|
|--3--||--------------------------|-------------------|-------------------||--------------------------|-------------------|-------------------||--------------------------|-------------------|-------------------||--------------------------|-------------------|-------------------||--6--------4------4h-6p-4-|--3----------------|--L----------------||--------------------------|-------------------|-------------------|
Pre-Chorus|------------------------------|------------------------------||------------------------------|------------------------------||------------------------------|------------------------------||-----------------------6------|------------------------------||--3--------------------4--4-4-|--4--4-4-4--4-4-4--4-4-4--4-4-||--1--1-1-1--1-1-1--1-1--------|------------------------------|
|-----------------------------|----------------------------||-----------------------------|----------------------------||-----------------------------|----------------------------||--5--------------------------|----------------------------||--3--3-3-3--3-3-------3------|-----------------------6----||----------------4--3--1--1-1-|--1--1-1-1--1-1-1--1-1-3----|
|------------------------------|------------------------------||------------------------------|------------------------------||------------------------------|------------------------------||-----------------------3------|------------------------------||--6--------------------1--1-1-|--1--1-1-1--1-1-1--1-1-1--1-1-||--4--4-4-4--4-4-4--4-4--------|------------------------------|
|------------------------------|----------------------------------||------------------------------|----------------------------------||------------------------------|--6-5-3---------------------------||--5---------------------------|--------6-5-3-5-3-2---------------||--3--3-3-3--3-3-3--3-3-3--3-3-|--------------------4-3-1---------||------------------------------|--------------------------4-3-1-0-|
|------------------------------|------------------------------||------------------------------|------------------------------||------------------------------|------------------------------||-----------------------6------|------------------------------||--3--------------------4--4-4-|--4--4-4-4--4-4-4--4-4-4--4-4-||--1--1-1-1--1-1-1--1-1--------|------------------------------|
|-----------------------------|----------------------------||-----------------------------|----------------------------||-----------------------------|----------------------------||--5--------------------------|----------------------------||--3--3-3-3--3-3-------3------|-----------------------6----||----------------4--3--1--1-1-|--1--1-1-1--1-1-1--1-1-3----|
|------------------------------|------------------------------||------------------------------|------------------------------||------------------------------|------------------------------||-----------------------3------|------------------------------||--6--------------------1--1-1-|--1--1-1-1--1-1-1--1-1-1--1-1-||--4--4-4-4--4-4-4--4-4--------|------------------------------|
|------------------------------|-------------------||------------------------------|-------------------||------------------------------|-------------------||--5---------------------------|--7----------------||--3--3-3-3--3-3-3--3-3-3--3-3-|--5----------------||------------------------------|-------------------|
Main Melody|-------------------------------------------------||-------------------------------------------------||--13-12-10-12-0-0-0-0-8-7-5-0-10-8-7-0-12-10-8-0-||-------------------------------------------------||-------------------------------------------------||-------------------------------------------------|
|----------------------------------------||----------------------15-13-12----------||--13-12-10-12-0-0-0-0----------13-12-10-||----------------------------------------||----------------------------------------||----------------------------------------|
|-------------------------------------------------||-------------------------------------------------||--13-12-10-12-0-0-0-0-8-7-5-0-10-8-7-0-12-10-8-0-||-------------------------------------------------||-------------------------------------------------||-------------------------------------------------|
|----------------------16-15-13----------------------------||-------------------------------16-15-13-15-13-12----------||--13-12-10-12-0-0-0-0----------------------------13-12-10-||----------------------------------------------------------||----------------------------------------------------------||----------------------------------------------------------|
|-------------------------------------------------||-------------------------------------------------||--13-12-10-12-0-0-0-0-8-7-5-0-10-8-7-0-12-10-8-0-||-------------------------------------------------||-------------------------------------------------||-------------------------------------------------|
|----------------------------------------||----------------------15-13-12----------||--13-12-10-12-0-0-0-0----------13-12-10-||----------------------------------------||----------------------------------------||----------------------------------------|
|-------------------------------------------------||-------------------------------------------------||--13-12-10-12-0-0-0-0-8-7-5-0-10-8-7-0-12-10-8-0-||-------------------------------------------------||-------------------------------------------------||-------------------------------------------------|
|----------------------16-15-13----------------------------||-------------------------------16-15-13-15-13-12----------||--13-12-10-12-0-0-0-0----------------------------13-12-10-||----------------------------------------------------------||----------------------------------------------------------||----------------------------------------------------------|
|-----------------------13p-10--------------||------------------------------12-----------||--13-12-10-0-12-10-8-0-----------13p-10----||----------------------------------------12-||-------------------------------------------||-------------------------------------------|
|-----------------------16-13--------------||-----------------------------15-----------||--13-12-10-0-12-10-8-0----------16p-13----||---------------------------------------15-||------------------------------------------||------------------------------------------|
|----------------------------------------|---------------------------|||----------------------------------------|---------------------------|||--13-12-10-0-12-10-8-0-10-8-7-0-8-7-5-0-|--7-5-------------6--------|||----------------------------------------|------8-6-5-------6--------|||----------------------------------------|------------8-6-5-4--------|||----------------------------------------|---------------------------||
Tablature Legend ---------------- x - dead note (n) - ghost note > - accentuded note NH - natural harmonic AH - artificial harmonic TH - tapped harmonic SH - semi harmonic PH - pitch harmonic h - hammer on p - pull off b - bend br - bendRelease pb - preBend pbr - preBendRelease brb - bendReleaseBend \n/ - tremolo bar dip \n - tremolo bar dive -/n - tremolo bar Release up /n\ - tremolo bar inverted dip /n - tremolo bar return -\n - tremolo bar Release down S - shift slide s - legato slide / - slide into from below or out of upwards \ - slide into from above or out of downwards ~ - vibrato W - wide vibrato tr - trill TP - tremolo picking T - tapping S - slap P - pop < - fade in ^ - brush up v - brush down
Tap to rate this tab
 
# A B C D E F G H I J K L M N O P Q R S T U V W X Y Z