System Of A Down - Johnny tab

 -=Johnny=-
==========
This song's tuning is drop D; then all strings down one whole step
(C-G-C-F-A-D)


Artist: System of a down
Release: Chop Suey! Maxi
Transcribed by: Alex Schopf
Email: Wes-God@web.de
 
 Some kind of funny song!

A pm... pm...1:-7---------5--4-----|-7---------5--4----|2:-6---3-4-5------6-5-|-6---3-4-5------6--|3:--------------------|-------------------|4:--------------------|-------------------|5:--------------------|-------------------|6:--------------------|-------------------|
B1:-7---7--8--15\\-|-7---7--8--14\\-|2:-6---6--7-------|-6---6--7-------|3:----------------|----------------|4:----------------|----------------|5:----------------|----------------|6:----------------|----------------|
C1:-4---6--5--8\\-|-4---4--3--2-|2:-3---5--4--7\\-|-3---3--2--1-|3:---------------|-------------|4:---------------|-------------|5:---------------|-------------|6:---------------|-------------|
D1:------------------------------|------------------------------|2:------------------------------|------------------------------|3:------------------------------|------------------------------|4:-2-3-2-2-6--6-6-7--7-7--9-9-9-|-2-3-2-2-6--6-6-7--7-7--9-9-9-|5:-2-3-2-2-6--6-6-7--7-7--9-9-9-|-2-3-2-2-6--6-6-7--7-7--9-9-9-|6:-2-3-2-2-6--6-6-7--7-7--9-9-9-|-2-3-2-2-6--6-6-7--7-7--9-9-9-|
1:----------------------------|----------------------------|2:----------------------------|----------------------------|3:----------------------------|----------------------------|4:-2-3-2-2-2--2-2-3--3-3--5-3-|-2-3-2-2-2--2-2-3--3-3--5-3-|5:-2-3-2-2-2--2-2-3--3-3--5-3-|-2-3-2-2-2--2-2-3--3-3--5-3-|6:-2-3-2-2-2--2-2-3--3-3--5-3-|-2-3-2-2-2--2-2-3--3-3--5-3-|
E1:---------------------------------|---------------------------------|2:---------------------------------|---------------------------------|3:---------------------------------|---------------------------------|4:-2-3-2-2-6-6-6-6-7-7-7-7-7-9-9-9-|-2-3-2-2-6-6-6-6-7-7-7-7-7-9-9-9-|5:-2-3-2-2-6-6-6-6-7-7-7-7-7-9-9-9-|-2-3-2-2-6-6-6-6-7-7-7-7-7-9-9-9-|6:-2-3-2-2-6-6-6-6-7-7-7-7-7-9-9-9-|-2-3-2-2-6-6-6-6-7-7-7-7-7-9-9-9-|
1:-------------------------------|-------------------------------|2:-------------------------------|-------------------------------|3:-------------------------------|-------------------------------|4:-2-3-2-2-2-2-2-2-3-3-3-3-3-5-3-|-2-3-2-2-2-2-2-2-3-3-3-3-3-5-3-|5:-2-3-2-2-2-2-2-2-3-3-3-3-3-5-3-|-2-3-2-2-2-2-2-2-3-3-3-3-3-5-3-|6:-2-3-2-2-2-2-2-2-3-3-3-3-3-5-3-|-2-3-2-2-2-2-2-2-3-3-3-3-3-5-3-|
Solo1:-7--7/8--8/10\8--7/12\7--|-7--7/8--8/10\8--7-5~-|2:-------------------------|----------------------|3:-------------------------|----------------------|4:-------------------------|----------------------|5:-------------------------|----------------------|6:-------------------------|----------------------|
1:-4--4-4/5--5/7\5--4/8\4--|--4--4/5--5/7\5--4/5--5/7-|2:-------------------------|--------------------------|3:-------------------------|--------------------------|4:-------------------------|--------------------------|5:-------------------------|--------------------------|6:-------------------------|--------------------------|
1:-7--7/8--8/10\8--7-7/12\7--|-7--7/8--8/10\8--7-5~-|2:---------------------------|----------------------|3:---------------------------|----------------------|4:---------------------------|----------------------|5:---------------------------|----------------------|6:---------------------------|----------------------|
1:-4--4-4/5--5/7\5--4/8\4--|--4--4/5--5/7\5--4/5--|2:-------------------------|----------------------|3:-------------------------|----------------------|4:-------------------------|----------------------|5:-------------------------|----------------------|6:-------------------------|----------------------|
1:-/7----7/8\7-----///22\\\-|2:--------------------------|3:--------------------------|4:--------------------------|5:--------------------------|6:--------------------------|
F1:---------------------------------|---------------------------------|2:---------------------------------|---------------------------------|3:---------------------------------|---------------------------------|4:-2-3-2-2-6-6-6-6-7-7-7-7-7-9-9-9-|-2-3-2-2-6-6-6-6-7-7-7-7-7-9-9-9-|5:-2-3-2-2-6-6-6-6-7-7-7-7-7-9-9-9-|-2-3-2-2-6-6-6-6-7-7-7-7-7-9-9-9-|6:-2-3-2-2-6-6-6-6-7-7-7-7-7-9-9-9-|-2-3-2-2-6-6-6-6-7-7-7-7-7-9-9-9-|
1:-------------------------------|-----------------------------|2:-------------------------------|-----------------------------|3:-------------------------------|-----------------------------|4:-2-3-2-2-2-2-2-2-3-3-3-3-3-5-3-|-2-3-2-2-2-2-2-2-3-3--3--3-3-|5:-2-3-2-2-2-2-2-2-3-3-3-3-3-5-3-|-2-3-2-2-2-2-2-2-3-3--3--3-3-|6:-2-3-2-2-2-2-2-2-3-3-3-3-3-5-3-|-2-3-2-2-2-2-2-2-3-3--3--3-3-|
.....but still seriously heavy! ORDER: ===== A 2x B C B D B C B C B D E Solo D F
Tap to rate this tab
 
# A B C D E F G H I J K L M N O P Q R S T U V W X Y Z