System Of A Down - Marmelade tab

Intro(distortion)

1------------------------------2------------------------------3------------------------------4------------------------------5------------------------------6--12-12-15-12(x5)-11-11-14-11-(X5)
1------------------------------2------------------------------3------------------------------4------------------------------5------------------------------6-12-12-15-15-20-20-19-19(x2)--
1------------------------------2------------------------------3------------------------------4------------------------------5------------------------------6-11-11-14-14-19-19-18-18--(x2)
1------------------------------2------------------------------3------------------------------4------------------------------5------------------------------6-12-12-15-15-20-20-19-19-(x2)-
verse1------------------------------2------------------------------3------------------------------4--------2---------------------5--0-0-0--0-2-0-0--------------6-0-0-0--0-0-0-0--------------- (x2)
Reggae part1--3---------------------------2--3---------------------------3--3---------------------------4------------------------------5------------------------------6------------------------------ (x16)
1------------------------------2------------------------------3------------------------------4------------------------------5-0-0-0-0-0-0-0-3-0-0-3-0-0-3-06-0-0-0-0-0-0-0-3-0-0-3-0-0-3-0
1------------------------------2------------------------------3------------------------------4------------------------------5-0-0-0-0-0-0-0-2-0-0-2-0-0-2-06-0-0-0-0-0-0-0-2-0-0-2-0-0-2-0
1------------------------------2------------------------------3------------------------------4------------------------------5-0-0-0-0-0-0-0-3-0-0-3-0-0-3-06-0-0-0-0-0-0-0-3-0-0-3-0-0-3-0
1------------------------------2------------------------------3------------------------------4------------------------------5-0-0-0-0-0-0-0-2-0-0-2-0-0-2-06-0-0-0-0-0-0-0-2-0-0-2-0-0-2-0
1------------------------------2------------------------------3------------------------------4------------------------------5------------------------------6-12-12-15-15-20-20-19-19(x2)--
1------------------------------2------------------------------3------------------------------4------------------------------5------------------------------6-11-11-14-14-19-19-18-18--(x2)
pre solo
1-------------------------------2-------------------------------3-------------------------------4-------------------------------5-------------------------------6-15-15-16-15-(x4)-14-14-15-14(x4)
1-15-15-16-15-(x4)-14-14-15-14(x4)2--------------------------------3--------------------------------4--------------------------------5--------------------------------6--------------------------------
SOLO
1--------------------------------2--------------------------------3--------------------------------4--------------------------------5--------------------------------6-12-12-12-12-12-12-12-14-14-14-14
1---------------------------------2---------------------------------3--------------------------------- (X2)4---------------------------------5---------------------------------6-15-15-15-15-10-10-10-10-10-10-10
1---------------------------------2---------------------------------3---------------------------------4---------------------------------5---------------------------------6-15-15-15-15-14-14-14-14---------
1---------------------------------2---------------------------------3---------------------------------4---------------------------------5---------------------------------6-12-12-14-14-15-15-14-14-17-17-15
1---------------------------------2---------------------------------3--------------------------------- (x2)4---------------------------------5---------------------------------6-15-15-14-14-12-12-11-11-13-13-14
1---------------------------------2---------------------------------3---------------------------------4---------------------------------5---------------------------------6-14-13-13-16-16-14-14-13-13-11-11
Email me at metellica_fan@saintly.com for any reasons
Tap to rate this tab
 
# A B C D E F G H I J K L M N O P Q R S T U V W X Y Z