System Of A Down – Know tab ver. 4

Know tab by S.O.A.D.

Tabbed by thiscomposer
(Mail me at thiscomposer@mail.ru)


Tablature legend
==================
~-vibrato
\,/-slide
x-dead note
*-palm mute
p-pull-off



IntroX1\ X3

|------|-----------------||------|-----------------||------|-----------------||------|-----------------||--9\--|--0-8-8-8-0-8-8--||--9\--|--0-8-8-8-0-8-8--|
|----------------||----------------||----------------||----------------||-0-8-8-8-0-8-8--||-0-8-8-8-0-8-8--| * *
Then some kind of bass riff Riff 1 X4
|--------------------------------||--------------------------------||--------------------------------||--------------------------------||--0-8-8-8-0-4-4--0-8-8-8-0-0-4--||--0-8-8-8-0-4-4--0-8-8-8-0-0-4--|
Bridge X4
|---------------------||-15-15--15--15-15-15-||---------------------||---------------------||---------------------||---------------------|
Riff 2 X8
|-----------||-----------||-----------||-----------||-0p0-0-0-3-||-0p0-0-0-3-|
Verse X4 \ X4 (All verses are palm muted)
|-------------|---------------||-------------|---------------||-------------|---------------||-0-0-3-0-0-3-|-0000-3-0000-3-||-------------|---------------|
Chorus X2
|--------------------------------||--------------------------------||--------------------------------||--------------------------------||-0-2-3-333333--0-2-3-x-x-x--x-x-||-0-2-3-333333--0-2-3-x-x-x--x-x-|
Chorus continues X1
|------------------------------------------------------------||------------------------------------------------------------||------------------------------------------------------------||------------------------------------------------------------||-0-2-3-333333--0-2-3---------0-2-3-3333-3--0-2-3-x-x-x--x-x-||-0-2-3-333333--0-2-3---------0-2-3-3333-3--0-2-3-x-x-x--x-x-|
Riff 2 X8
|-----------||-----------||-----------||-----------||-0p0-0-0-3-||-0p0-0-0-3-|
Verse X4 \ X4 (All verses are palm muted)
|-------------|---------------||-------------|---------------||-------------|---------------||-0-0-3-0-0-3-|-0000-3-0000-3-||-------------|---------------|
Chorus X2
|--------------------------------||--------------------------------||--------------------------------||--------------------------------||-0-2-3-333333--0-2-3-x-x-x--x-x-||-0-2-3-333333--0-2-3-x-x-x--x-x-|
Chorus continues X1
|------------------------------------------------------------||------------------------------------------------------------||------------------------------------------------------------||------------------------------------------------------------||-0-2-3-333333--0-2-3---------0-2-3-3333-3--0-2-3-x-x-x--x-x-||-0-2-3-333333--0-2-3---------0-2-3-3333-3--0-2-3-x-x-x--x-x-|
Interlude X1
|------------------------------------------------------------------------------------||------------------------------------------------------------------------------------||------------------------------------------------------------------------------------||-xx-x-x-x--xx-x-x-x--xx-x-x-x--xx-x-x-x---------------------------------------------||-xx-x-x-x--xx-x-x-x--xx-x-x-x--xx-x-x-x---0p0-0-0-0--0p0-0-0-0--0p0-0-0-0--0p0-0-0-0||------------------------------------------0p0-0-0-0--0p0-0-0-0--0p0-0-0-0--0p0-0-0-0|
Something like solo X4\X1
|---------------------|-----||---------------10~~~~|-----||----------10~~~10~~~~|-----||----------10~~~10~~~~|-----||-----------8~~~------|-12\-||-0~~~~~~~------------|-----|
Riff 3(Palm Muted) X2
|---------------------------------------------------------------------------||---------------------------------------------------------------------------||---------------------------------------------------------------------------||-0-0-0-0-0-0-0-0-0-0-0-0-0-0-0-0-0-0-0-0-3-3-3-3-3-3-3-3-3-3-3-3-3-33333-3-||---------------------------------------------------------------------------||---------------------------------------------------------------------------|
Riff 4(Palm Muted) X2
|----------------------------------------------------------------------------------||----------------------------------------------------------------------------------||----------------------------------------------------------------------------------||----------------------------------------------------------------------------------||-0-0-0-0-0-0-0-0-0-0-0-0-0-0-0-0-0-0-0-0-3-3-3-3-3-3-3-3-3-3-3--3-3--3-3-3--3-3-3-||-0-0-0-0-0-0-0-0-0-0-0-0-0-0-0-0-0-0-0-0-3-3-3-3-3-3-3-3-3-3-3--3-3--3-3-3--3-3-3-|
Chorus X2
|--------------------------------||--------------------------------||--------------------------------||--------------------------------||-0-2-3-333333--0-2-3-x-x-x--x-x-||-0-2-3-333333--0-2-3-x-x-x--x-x-|
Chorus continues X1
|------------------------------------------------------------||------------------------------------------------------------||------------------------------------------------------------||------------------------------------------------------------||-0-2-3-333333--0-2-3---------0-2-3-3333-3--0-2-3-x-x-x--x-x-||-0-2-3-333333--0-2-3---------0-2-3-3333-3--0-2-3-x-x-x--x-x-|
Please rate this tab:
x1.0