System Of A Down - Spiders Live tab

Author/Artist: System Of A Down
Title: Spiders (Live)
Album: On Conan O'Brien
Transcribed by: HaEwIre


live version from Conan O'Brien 
tuning: c,g,c,f,a,d
-----------------------------------------------------------
-----------------------------------------------------------
-----------------------------------------------------------
-----------------------------------------------------------
-----7------7------5------5------5-----7-----7-----5---5-5--0------0------0------0------0-----0-----0-----0-----0----0
-------------------------------------------------------------------------------------------------------------------------------------------------------------------------------------------------------------------------------------------------8-----7-----10-----8-----7h8-----7-----7-----5---5-5---0-----0-----0------0-----0-------0-----0-----0-----0-----0 On the last "dreams are made winding..." Do..
-----------------------------------------------------------------------------------------------------------------------14--12--15--14--12/14--12--12/14----19----------------------x---x---x---x---x/-x---x---x/-x-----x---------------------12--10--13--12--10/12--10--10/12----17------------------------------------------------------------------------------- Heavy Distortion
---------------------------------------------------------------------------------------------------------------------------------------------------------------------------------------------------------------------------------------------10-10-10-10--10-10-10-10-10-10-10-10-10-10-10-10-10-10-----10-10-10-10--10-10-10-10-10-10-10-10-10-10-10-10-10-10----
-----------------------------------------------------------------------------------------------------------------------14--12--15--14--12/14--12--12/14--10-10-10-10---------------x---x---x---x---x/-x---x---x/-x---x--x--x--x--------------12--10--13--12--10/12--10--10/12---8--8--8--8------------------------------------------------------------------------ Heavy Distortion
---------------------------------------------------------------------------------------------------------------------------------------------------------------------------------------------------------------------------------------------10-10-10-10--10-10-10-10--8-8-8-8-8-7-7-7-7-7--------------10-10-10-10--10-10-10-10--8-8-8-8-8-7-7-7-7-7------------- Clean
-----------------------------------------------------------------------------------------------------------------------9-9-7-7-7-7--9-9-7-7-7-7--14--12--15--14--12/14--12--12/14-x-x-x-x-x-x--x-x-x-x-x-x---x---x---x---x---x/-x---x---x/-x-7-7-5-5-5-5--7-7-5-5-5-5--12--10--13--12--10/12--10--10/12-----------------------------------------------------------
-----10-------10--10---10-------9-9-7-7-7--9-9-7-7-7--14-12-15-14-12/14-12-12/14----------x-x-x-x-x--x-x-x-x-x---x--x--x--x--x/-x--x--x/-x----------7-7-5-5-5--7-7-5-5-5--12-10-13-12-10/12-10-10/12------------- Heavy Distortion
---------------------------------------------------------------------------------------------------------------------------------------------------------------------------------------------------------------------------------------------10-10-10-10--10-10-10-10--10-10-10-10-10-10-10-10-10-------10-10-10-10--10-10-10-10--10-10-10-10-10-10-10-10-10------
-------14----12-----15-----14-----12/14-----14-----14----12------x-----x------x------x------x/-x------x------x-----x-----12----10-----13-----12-----10/12-----12-----12----10-0-0---0-0----0-0----0-0----0-0-------0-0----0-0----0-0---0. . . . . . . . . . . . . . . . .
---------------------------------------------------------------------------------------------------------------------------------------------------------------------------------------------------------------------------------------------10-10-10-10--10-10-10-10-10--8-8-8-8-8-7-7-7-7-7-----------10-10-10-10--10-10-10-10-10--8-8-8-8-8-7-7-7-7-7---------- Solo
-----------------------------------------------------------------------------------------------------------------------14-----15-----18----19-----20-----18------------------------x------x------x-----x------x------x-----------------------12-----13-----16----17-----18-----16---------------------------------------------------------------------------------
---------------------------------------------------------------------------------------------------------------------------------------------------------------------------------------------------------------------------------------------10-10-10-10--10-10-10-10--10-10-10-10-10-10-10-10-10-------10-10-10-10--10-10-10-10--10-10-10-10-10-10-10-10-10------
-----------------------------------------------------------------------------------------------------------------------14--12--15--14--12-14--12--12-14-10-10-10-10----------------x---x---x---x---x--x---x---x--x--x--x--x--x---------x2----12--10--13--12--10/12--10--10/12--8--8--8--8-------------------------------------------------------------------------
---------------------------------------------------------------------------------------------------------------------------------------------------------------------------------------------------------------------------------------------10-10-10-10-10-10-10-10-10--8-8-8-8-8-7-7-7-7-7------------10-10-10-10-10-10-10-10-10--8-8-8-8-8-7-7-7-7-7----------- Outro
-------------------------------------------------------------------------------------------------------------------------------------------------------------------------------------------------------------------------------------------------7-----7-----5-----5-----5-----7-----7-----5-----5------0-----0-----0-----0-----0-----0-----0-----0-----0---------
-----------------------------------------------------------------------------------------------------------------------10-9-12-10-9/10-9-9/-10------------14-12-15-14/12-12/10-----x-x--x--x--x-x/-x-x-x/-x----------x--x--x--x/-x--x/-x-------8-7-10--8-7/-8-7-7/-8-----------12-10-13-12/10-10/-8---------------------------------------------------------------
-----------10------------------------------------------------------10----10------------------------------------------------10----------10-------------------------------------------8----------------8---------------------------------------8--------------------8------------------------------------------------------------0---------------------------------- let ring out......
Tap to rate this tab
 
# A B C D E F G H I J K L M N O P Q R S T U V W X Y Z