System Of A Down – Chop Suey tab ver. 6

-----------------------------------------------------------------------------
                         Chop Suey! - System of a Down
-----------------------------------------------------------------------------
GUITAR 1 (C G C F A D) - Distorted
GUITAR 2 (C G C F A D) - Distorted
GUITAR 3 (C G C F A D) - Distorted
GUITAR 4 (C G C F A D) - Distorted

INTRO GUITAR 1 |---------------------------------------------------------------------| |---------------------------------------------------------------------| |-5-55-55-55-55-55-7-77-77-77-77-77-4-44-44-44-44-44-2-22-22-22-22-22-| |-7-77-77-77-77-77-9-99-99-99-99-99-5-55-55-55-55-55-3-33-33-33-33-33-| x4 |-0-00-00-00-00-00-0-00-00-00-00-00-0-00-00-00-00-00-0-00-00-00-00-00-| |---------------------------------------------------------------------|
GUITAR 2 |-------------------------------------------------| |-------------------------------------------------| |-5---5---5---7---7---7---4---4---4---2---2---2---| |---7---7---7---9---9---9---5---5---5---3---3---3-| x3 |-------------------------------------------------| |-------------------------------------------------| PM. . . . . . . . . . . . . . . . . . . . . . . .
GUITAR 3 |--8--8-8--8-8--8-8--8-8--8-8-10-1010-1010-1010-1010-1010-| |-10-1010-1010-1010-1010-1010-12-1212-1212-1212-1212-1212-| |---------------------------------------------------------| |---------------------------------------------------------| |---------------------------------------------------------| |---------------------------------------------------------|
|-7-77-77-77-77-77-12-1212-1212-1212-1212-1212-| |-8-88-88-88-88-88-13-1313-1313-1313-1313-1313-| |----------------------------------------------| |----------------------------------------------| |----------------------------------------------| |----------------------------------------------|
|-12-1212-1212-1212-1212-1212-13-1313-1313-1313-1313-1313-| |-13-1313-1313-1313-1313-1313-15-1515-1515-1515-1515-1515-| |---------------------------------------------------------| |---------------------------------------------------------| |---------------------------------------------------------| |---------------------------------------------------------|
|-10-1010-1010-1010-1010-1010-1313131313131313-| |-12-1212-1212-1212-1212-1212-1515151515151515-| |----------------------------------------------| |----------------------------------------------| |----------------------------------------------| |----------------------------------------------|
MAIN RIFF GUITAR 1 |---------------------------------| |---------------------------------| |---------------------------------| |-8-7-8-7-8-7-8-7-7-6-7-6-7-6-7-6-| |-8-7-8-7-8-7-8-7-7-6-7-6-7-6-7-6-| |-8-7-8-7-8-7-8-7-7-6-7-6-7-6-7-6-|
|---------------------------------------------| |---------------------------------------------| |---------------------------------------------| |-10-9-10-9-10-9-10-9-12-10-12-10-12-10-12-10-| |-10-9-10-9-10-9-10-9-12-10-12-10-12-10-12-10-| |-10-9-10-9-10-9-10-9-12-10-12-10-12-10-12-10-|
|------------------------------------------| |------------------------------------------| |------------------------------------------| |------------------------------------------| x2 |------------------------------------------| |-7777777766666666999999991212121212121212-|
VERSE 1 GUITAR 1 |----------------------------------------------------------------| |----------------------------------------------------------------| |----------------------------------------------------------------| |-8--7----8--7--8--7--8--7--8--7--7--6----7--6--7--6--7--6--7--6-| |-8--7----8--7--8--7--8--7--8--7--7--6----7--6--7--6--7--6--7--6-| |-8--7----8--7--8--7--8--7--8--7--7--6----7--6--7--6--7--6--7--6-| Wake up Grababrushandputalittle Makeup Hidethescarstofadeawaythe Shakeup Whydyouleavethekeysuponthetable hereyougocreateanother Fable grababrushandputalittle Makeup Hidethescarstofadeawaythe Shakeup whydyouleavethekeysuponthetable I dont think you
CHORUS GUITAR 1/3 - REPEAT INTRO
GUITAR 2 |----------------------------------------| |----------------------------------------| |-----5----------7--------4---------2----| |----7-7-7------9-9--7---5-5-5-----3-3-3-| x2 |---7---7-----10---10---5---5-----3---3--| |----------------------------------------| PM ...... . .... . ...... ...... Trust in my selfrightous Suicide I cry when angels deserve to
|---------------------------------| |---------------------------------| |---------------------------------| |-8-7-8-7-8-7-8-7-7-6-7-6-7-6-7-6-| |-8-7-8-7-8-7-8-7-7-6-7-6-7-6-7-6-| |-8-7-8-7-8-7-8-7-7-6-7-6-7-6-7-6-| DIE!
|---------------------------------------------| |---------------------------------------------| |---------------------------------------------| |-10-9-10-9-10-9-10-9-12-10-12-10-12-10-12-10-| |-10-9-10-9-10-9-10-9-12-10-12-10-12-10-12-10-| |-10-9-10-9-10-9-10-9-12-10-12-10-12-10-12-10-|
REPEAT VERSE 1 PRE-BRIDGE GUITAR 1/3 REPEAT INTRO GUITAR 2 - REPEAT CHORUS Trust in my selfrightous Suicide I cry whenangelsdeserve toDie in my selfrightous suicide I cry when angels deserve to die
GUITAR 1 |---------------------------------| |---------------------------------| |---------------------------------| |-8-7-8-7-8-7-8-7-7-6-7-6-7-6-7-6-| |-8-7-8-7-8-7-8-7-7-6-7-6-7-6-7-6-| |-8-7-8-7-8-7-8-7-7-6-7-6-7-6-7-6-|
|---------------------------------------------| |---------------------------------------------| |---------------------------------------------| |-10-9-10-9-10-9-10-9-12-10-12-10-12-10-12-10-| x2 |-10-9-10-9-10-9-10-9-12-10-12-10-12-10-12-10-| |-10-9-10-9-10-9-10-9-12-10-12-10-12-10-12-10-|
|---------------------------------| |---------------------------------| |---------------------------------| |-8-7-8-7-8-7-8-7-7-6-7-6-7-6-7-6-| |-8-7-8-7-8-7-8-7-7-6-7-6-7-6-7-6-| |-8-7-8-7-8-7-8-7-7-6-7-6-7-6-7-6-| PM. . . . . . . . . . . . . . . . Father! (Father!)
|---------------------------------------------| |---------------------------------------------| |---------------------------------------------| |-10-9-10-9-10-9-10-9-12-10-12-10-12-10-12-10-| |-10-9-10-9-10-9-10-9-12-10-12-10-12-10-12-10-| |-10-9-10-9-10-9-10-9-12-10-12-10-12-10-12-10-| PM. . . . . . . . . . . . . . . . Father! (Father!)
|---------------------------------| |---------------------------------| |---------------------------------| |-8-7-8-7-8-7-8-7-7-6-7-6-7-6-7-6-| |-8-7-8-7-8-7-8-7-7-6-7-6-7-6-7-6-| |-8-7-8-7-8-7-8-7-7-6-7-6-7-6-7-6-| PM. . . . . . . . . . . . . . . . Father! (Father!)
|---------------------------------------------| |---------------------------------------------| |---------------------------------------------| |-10-9-10-9-10-9-10-9-12-10-12-10-12-10-12-10-| |-10-9-10-9-10-9-10-9-12-10-12-10-12-10-12-10-| |-10-9-10-9-10-9-10-9-12-10-12-10-12-10-12-10-| PM. . . . . . . . . . . . . . . . Father!
|------------------------------------------| |------------------------------------------| |------------------------------------------| |------------------------------------------| x2 |------------------------------------------| |-7777777766666666999999991212121212121212-| Father intoyourhands I commendmy spirit Father intoyourhands why haveyouforsaken
BRIDGE GUITAR 1/3 - REPEAT INTRO
GUITAR 2 - REPEAT CHORUS |----------------------------------------| |----------------------------------------| |-----5----------7--------4---------2----| |----7-7-7------9-9--7---5-5-5-----3-3-3-| x2 |---7---7-----10---10---5---5-----3---3--| |----------------------------------------| PM ...... . .... . ...... ...... me inyoureyesforsakenme inyourthoughts forsaken me inyour heart forsaken me, oh
GUITAR 4 |-----------------------------------| |-----------------------------------| |---2-------------------5-----------| |---2---------3---------5---------3-| x4 |---0---------3---------3---------3-| |-------------3-------------------3-| Trust in my selfrightous Suicide I cry whenangelsdeserve to die in my selfrightuos Suicide I cry when angels deserve to die
Please rate this tab:
x1.0