Tangiers - Keep The Living Bodies Warm tab

The Tangiers are a really cool back to basic style rock band they have a kinda wierd 
but they have some cool guitar, funky bass lines and heavy drums. you gotta check out their 
album "Hot New Spirits"

tining-standard-EADGBe

intro

1---------------|2---------4-----|3---------3-----| x44-----3-5-------|5-3-6-----------|6---------------|
verses 1+2
1-------------------------------------------|2-------------------------------------------|3-55555555-33333333-5555555555555555--------|4-55555555-33333333-5555555555555555--------| x45-33333333-11111111-3333333333333333--------|6-------------------------------------------|
Chorus
1-------------------------------------------|2-6----4------------------------------------|3-5-5--3-3--5555555555555555----------------| x24-3-5--1-3--5555555555555555----------------|5---3----1--3333333333333333----------------|6-------------------------------------------|
Post Chorus 11-------------------------------------------|2-------------------6-----------------------|3-55555555-33333333-5-55555555555555--------|4-55555555-33333333-3-55555555555555--------|5-33333333-11111111---33333333333333--------|6-------------------------------------------|
1-------------------------------------------|2-------------------6-----------------------|3-55555555-33333333-5-55555555555555--------|4-55555555-33333333-3-55555555555555--------|5-33333333-11111111---33333333333333--------|6-------------------------------------------|
intro (well its not really an intro but you get the point) verse 2 chorus 2 post chorus 2
1-------------------------------------------|2-------------------6-----------------------|3-55555555-33333333-5-55555555555555--------|4-55555555-33333333-3-55555555555555--------|5-33333333-11111111---33333333333333--------|6-------------------------------------------|
1--------------------------|2-------------------6------|3-55555555-33333333-5-3----|4-55555555-33333333-3-3----|5-33333333-11111111---1----|6--------------------------|
you can try the harmonica solo if you want, its not that hard. but if you are gonna do it's play on a C scale Harmonica. verse 3
1-------------------------------------|2-------------------------------------|3-5--5--3--3--5--5--5--5--------------| x44-5--5--3--3--5--5--5--5--------------|5-3--3--1--1--3--3--3--3--------------|6-------------------------------------|
chorus 3 post chorus 3
1-------------------------------------------|2-------------------6-----------------------|3-55555555-33333333-5-55555555555555--------|4-55555555-33333333-3-55555555555555--------|5-33333333-11111111---33333333333333--------|6-------------------------------------------|
1----------------------------|2-------------------6-5------|3-55555555-33333333-5-5------|4-55555555-33333333-3-5------|5-33333333-11111111---3------|6----------------------------|
thanx for reading this tab, for questions, e-mail me at horny_devil183@hotmail.com
Tap to rate this tab
 
# A B C D E F G H I J K L M N O P Q R S T U V W X Y Z