Tara Perdida - Dentro Reaco Final tab

Artist: Tara Perdida
Song: Dentro (Reacção Final)
Tabbed by: David Ramos
Site: http://www.aprenderatocar.pt.vu/
Tuning: Standard (E A D G B e)


Obs: A musica n está 100% mas já da para entender qqr coisa!

Sugestoes: david_tiago_51@hotmail.com

Intro:

--------------------------|--------------------------|--------------------------|----------10-10-10--------| 4x---10-10------------------|--------------------------|
--------------------------|--------------------------|--------------------------|-------7--5--4--5--4------| 2x----5~-----------------5--|--------------------------|
--------------------------|--------------------------|--------------------------|--------------------------|--------9--10--9--5--7--5-|--5--7--------------------|
--------------------------|--------------------------|--------------------------|-------7--5--4--5--4------|----5~-----------------5--|--------------------------|
--------------------------|--------------------------|--------------------7-----|-----7--5--4--5--4--------|--------------------------|--------------------------|
--------------------------|--------------------------|--------------------------|--------------------------|----5-7-9-7-5-7-5-7-------|--------------------------|
main riff "Se eu podesse..."
----------------------------|----------------------------|----5--------------------5--|----5---3----7---3---5---5--| 4x----7---3----7---3---5---7--|--------5----9---5---7------|
Algumas partes contêm Palm Mute. "Terapias..."
---------------------------|---------------------------|---------------------------|--7----5---3---5---7-------| 2x--7----5---3---5---7-------|--9----7---5---7---9-------|
--------------------------|--------------------------|--------------------------|----------10-10-10--------| 4x---10-10------------------|--------------------------|
"Se eu podesse.."
----------------------------|----------------------------|----------------------------|---------4--------7---5--4--|-5(hold)----5---------------|----------------------------|
----------------------------|----------------------------|----5--------------------5--|----5---3----7---3---5---5--| 2x----7---3----7---3---5---7--|--------5----9---5---7------|
"Terapias.."---------------------------|---------------------------|---------------------------|--7----5---3---5---7-------| 2x--7----5---3---5---7-------|--9----7---5---7---9-------|
"Reacção Final que me faz levar.."
----------------------------|----------------------------|----5--------------------5--|----5---3----7---3---5---5--| 4x----7---3----7---3---5---7--|--------5----9---5---7------|
Solo:
(É o que se arranja lool se alguem souber diga-me como é o solo)--------------------------|--------------------------|--------------------------|--------------------------|---------4*----5*---7*----|-----5*-------------------|
* várias vezes
--------------------------|--------------------------|--------------------------|-------7--5--4--5--4------|----5~-----------------5--|--------------------------|
--------------------------|--------------------------|--------------------7-----|-----7--5--4--5--4--------|--------------------------|--------------------------|
--------------------------|--------------------------|--------------------------|--------------------------|--------9--10--9--5--7--5-|--5--7--------------------|
Final:
---------------------------|---------------------------|----5--------------------5-|----5---3----7---3---5---5-|----7---3----7---3---5---7-|--------5----9---5---7-----|
Tap to rate this tab
 
# A B C D E F G H I J K L M N O P Q R S T U V W X Y Z