Ted Leo - One Who Got Us Out tab

|---0--0--0--0-----4-0------0-------||--0--0--0--0--2-2----2------2------||-2--2--1--1-----------3-3-3--3-----||-----------------------------------||-----------------------------------||-----------------------------------| pm----------------------------| |---0--0--0--0-----4-0----------------4-4-4-4-0-0-0-0-||--0--0--0--0--2-2----2--------2-2-2-24-4-4-4-4-4-4-4-||-2--2--1--1------------3-3-3-33-3-3-33-3-3-3-3-3-3-3-||-----------------------------------------------------||-----------------------------------------------------||-----------------------------------------------------|
|-------------------------------------||-------------------------------------||-------------------66666666----------||-77777777-22222222-66666666-44444444-||-77777777-22222222-44444444-44444444-||-55555555-00000000----------22222222-|
|---------------------------------------||---------------------------------------||-------------------66666666------------||-77777777-22222222-66666666-444-44-444-||-77777777-22222222-44444444-444-44-444-||-55555555-00000000----------222-22-222-|
|----------------------------------------------||----------------------------------------------||----------------------------------------------||-4h7-7-7~~~~~~~~------------------------------||----------------4h7-7-7~~~~-------------------||---------------------------7h9/2-2-2-22-2~~~~-|x2
|---0--0--0--0-----4-0------0-------||--0--0--0--0--2-2----2------2------||-2--2--1--1-----------3-3-3--3-----||-----------------------------------||-----------------------------------||-----------------------------------| pm----------------------------| |---0--0--0--0-----4-0----------------4-4-4-4-0-0-0-0-||--0--0--0--0--2-2----2--------2-2-2-24-4-4-4-4-4-4-4-||-2--2--1--1------------3-3-3-33-3-3-33-3-3-3-3-3-3-3-||-----------------------------------------------------||-----------------------------------------------------||-----------------------------------------------------|
|-------------------------------------||-------------------------------------||-------------------66666666----------||-77777777-22222222-66666666-44444444-||-77777777-22222222-44444444-44444444-||-55555555-00000000----------22222222-|
|---------------------------------------||---------------------------------------||-------------------66666666------------||-77777777-22222222-66666666-444-44-444-||-77777777-22222222-44444444-444-44-444-||-55555555-00000000----------222-22-222-|
|----------------------------------------------||----------------------------------------------||----------------------------------------------||-4h7-7-7~~~~~~~~------------------------------||----------------4h7-7-7~~~~-------------------||---------------------------7h9/2-2-2-22-2~~~~-|x2
|--------------------------------------------------||--------------------------------------------------||--------------------------------------------------||-4h747747477~~~~~~~~------------------------------||----------------4h747747477~~~~-------------------||-----------------------------7h9/2-2-2-22-2~~~~---|x2
|-------------------||-------------------||-------------------||-66666666-44444444-||-66666666-44444444-||-44444444-22222222-|
|--------------|-------------------||--------------|-------------------||-6~-----------|-66~---------------||-6~-7~-9~-11~-|-66~-77~-99~-1111~-||-4~-7~-9~-11~-|-44~-77~-99~-1111~-||----5~-7~-9~--|-----55~-77~-9-9~--|x2
|-------------------||-------------------||-------------------||-66666666-44444444-||-66666666-44444444-||-44444444-22222222-|
|-------------------||-------------------||-------------------||-66666666-44444444-||-66666666-44444444-||-44444444-22222222-||-------------------|
|-------------------||-------------------||-66666666-44444444-||-66666666-44444444-||-44444444-22222222-|
|------------||-6~~~--6~~~-||--7~~~--7~~~||------------||------------||------------|do this some...
|-4-||-5-||-6-||-6-||-4-||---| end note
Tap to rate this tab
 
# A B C D E F G H I J K L M N O P Q R S T U V W X Y Z