Ted Nugent - Girl Scout Cookies tab

Hey guys I tabbed out the intro to this awhile back and I'm back with the rest except 
the solo.
Be sure to tune the guitar down a half step to get the thick 3 piece Nugent sound he 
now.

intro: X4-----------------------------------------------|-----------------------------------------------|-----------------------------------------------|-----------------------------------------------|-------0---------0----------0-2--3p2p0---------|-0-2-0---2--0-2----2--0-2-0------------2v------|
The verses are for the most part correct but Ted does change up the verses a little each he plays them on the album and in concert. This is how I play them live and no one seems to complain. Verse:
-2--2-----------------------------------------|-3--3--x-x------------------------------------|-2--2--x-x-2--2---------------------0h2p0-----|-0--0--x-x-2--2--x-x--2-----2-2----------2p0--|-0--0------0--0--x-x--2-----2-2--0h2----------|------------------------x-x--x----------------|
-2--2-----------------------------------------|-3--3--x-x------------------------------------|-2--2--x-x-2--2--------5---0---2~~------------|-0--0--x-x-2--2--x-x---5---0---2~~------------|-0--0------0--0--x-x-----------0~~------------|----------------------------------------------|
-2--2-----------------------------------------|-3--3--x-x------------------------------------|-2--2--x-x-2--2---------------------0h2p0-----|-0--0--x-x-2--2--x-x--2-----2-2----------2p0--|-0--0------0--0--x-x--2-----2-2--0h2----------|------------------------x-x--x----------------|
-2--2-----------------------------------------|-3--3--x-x------------------------------------|-2--2--x-x-2--2-----6-6-6-6-----9-----6-6-----|-0--0--x-x-2--2-----6-6-6-6-----9-----6-6-----|-0--0------0--0--0--4-4-4-4--0--7--0--4-4-----|----------------------------------------------|
Chorus: X2----------------------------------------------|----------------------------------------------|----------------------------------------------|----------------------------------------------|-------0---------0----------0-2--3p2p0--------|-0-2-0---2--0-2----2--0-2-0------------2v-----|
Verse:
-2--2-----------------------------------------|-3--3-----------------------------------------|-2--2---2--2-------------------0h2p0----------|-0--0---2--2--x-x--2---2-2----------2p0-------|-0--0---0--0--x-x--2---2-2--0h2---------------|----------------------x-x--x------------------|
-2--2-----------------------------------------|-3--3--x-x------------------------------------|-2--2--x-x-2--2--------5---0---2~~------------|-0--0--x-x-2--2--x-x---5---0---2~~------------|-0--0------0--0--x-x-----------0~~------------|----------------------------------------------|
-2--2-----------------------------------------|-3--3--x-x------------------------------------|-2--2--x-x-2--2---------------------0h2p0-----|-0--0--x-x-2--2--x-x--2-----2-2----------2p0--|-0--0------0--0--x-x--2-----2-2--0h2----------|------------------------x-x--x----------------|
-2--2-----------------------------------------|-3--3--x-x------------------------------------|-2--2--x-x-2--2-----6-6-6-6-----9-----6-6-----|-0--0--x-x-2--2-----6-6-6-6-----9-----6-6-----|-0--0------0--0--0--4-4-4-4--0--7--0--4-4-----|----------------------------------------------|
Chorus: X2----------------------------------------------|----------------------------------------------|----------------------------------------------|----------------------------------------------|-------0---------0----------0-2--3p2p0--------|-0-2-0---2--0-2----2--0-2-0------------2v-----|
Bridge: Girl Scout Cookies X4----------0---------2-2----------------------|----------1---------3-3----------------------|--2-------0---------2-2----------------------|--2-------2---------0-0-------0h2p0----------|--0-------3---------------0h2------2p0-------|---------------------------------------------|
X4--------------------------------------------|--------------------------------------------|--------------------------------------------|--------------------------------------------|-----------------2p0-2p0-2p0-2p0------------|-2p0-2p0-2p0-2p0----------------------------|
SOLO
Chorus: X4----------------------------------------------|----------------------------------------------|----------------------------------------------|----------------------------------------------|-------0---------0----------0-2--3p2p0--------|-0-2-0---2--0-2----2--0-2-0------------2v-----|
Girl Scout Cookies X4----------0---------2-2----------------------|----------1---------3-3----------------------|--2-------0---------2-2----------------------|--2-------2---------0-0-------0h2p0----------|--0-------3---------------0h2------2p0-------|---------------------------------------------|
Chorus: X2----------------------------------------------|----------------------------------------------|----------------------------------------------|----------------------------------------------|-------0---------0----------0-2--3p2p0--------|-0-2-0---2--0-2----2--0-2-0------------2v-----|
Tap to rate this tab
 
# A B C D E F G H I J K L M N O P Q R S T U V W X Y Z