Tempest Rising – Hollow Dreams tab

This tab is my first tab and i got it from the Tempest Rising EP, Calm Before The 
Storm. These guys are really good as they have a unique sound about them. Their 
heavy and soft and fast and slow. Its a really cool mixture. No digital beats with 
these guys.

Hollow Dreams - Originally played acoustic, but their are 2 guitars for this 
version yet i will only tab the main guitar. (Trent - Lead/Rythm Guitar, James - 
Lead Guitar, Vince - Vocals, Ferdi - Drums[ex drummer])

Tuning - DROP C (CGCFAD)

Hollow Dreams Tab - Drop C Tuning. (CGCFAD)

|---------------------------------------------| ||---------------------------------------------| ||---------------------------------------------| ||---5-8--7--5---5----3---3-------10--12--10---|X6||--5-5-5--5--5-5-5--3-3-3-3----10--10--10--10-| ||-5-----5--5--5----3---3-----10---------------| |
|-----------------------------------------| ||-----------------------------------------| ||-----------------------------------------| ||---10--8---7--8--10-8----8--10--12--10-8-|X4||--8---8---8--8--8--8-8--8--8---8---8--8--| ||-0---0---0--0--0-------8--8---8---8------| |
|---------------------------------------------| ||---------------------------------------------| ||---------------------------------------------| ||---5-8--7--5---5----3---3-------10--12--10---|X6||--5-5-5--5--5-5-5--3-3-3-3----10--10--10--10-| ||-5-----5--5--5----3---3-----10---------------| |
|-----------------------------------------| ||-----------------------------------------| ||-----------------------------------------| ||---10--8---7--8--10-8----8--10--12--10-8-|X4||--8---8---8--8--8--8-8--8--8---8---8--8--| ||-0---0---0--0--0-------8--8---8---8------| |
|------------------------------------||------------------------------------||---------5---3---2------------------| |---3--3---3---3---0---2--3--8--7--5-|X4|--3--3--3--3---3-----0--0--0--0--0--||-3--3--3------------0--0--0--0--0---|
|---------------------------------------------| |---------------------------------------------| |---------------------------------------------| |---5-8--7--5---5----3---3-------10--12--10---|X2|--5-5-5--5--5-5-5--3-3-3-3----10--10--10--10-| |-5-----5--5--5----3---3-----10---------------|
|--------------------------------------------||--------------------------------------------||--------------------------------------------||-5555555588877755-33333333-1010101012121010-|X2|-5555555555555555-33333333-1010101010101010-||-5555555555555555-33333333-1010101010101010-|
|---------------------------------------------| ||---------------------------------------------| ||---------------------------------------------| ||---5-8--7--5---5----3---3-------10--12--10---|X2||--5-5-5--5--5-5-5--3-3-3-3----10--10--10--10-| ||-5-----5--5--5----3---3-----10---------------| |
^^<-Slow the last progression down till end of song. about half a beat.^^ http://www.facebook.com/tempestrisingofficial
Please rate this tab:
x1.0