Terasbetoni - Pyha Maa tab

Artist:    Teräsbetoni
Song:      Pyhä Maa
Tabbed by: xHellbound


The middle of the solo is probably wrong, corrections welcome.


Taivas lyö tulta!!!


h   - hammer-on
p   - pull-off
^   - bend
~   - vibrato
/\  - slide
X\\ - pick scrape
<3> - harmonic
*   - see note
X   - mute


Intro

Gtr I|--------------------------| |--------------------------||--12--12p10---------------| |--12--12p10---------------||--------------12--11--12--| |------------------11~-----||--------------------------| |--------------------------||--------------------------| |--------------------------||--------------------------| x3 |--------------------------|
|Gtr II|--------------------------| |--------------------------||--------------------------| |--------------------------||--12--12p11----9------9---| |--12--12p11---------------||------------------12------| |------------------12~-----||--------------------------| |--------------------------||--------------------------| x3 |--------------------------|
Gtr I|--------------------------| |-----------||--12--12p10---------------| |-----------||--------------12--11--12--| |--9--<9>*--||--------------------------| |-----------||--------------------------| |-----------||--------------------------| x4 |-----------| *Attack with the whammy bar
|Gtr II|--------------------------| |-----------||--------------------------| |-----------||--12--12p11----9------9---| |--9~~~-----||------------------12------| |-----------||--------------------------| |-----------||--------------------------| x4 |-----------|
Verse Gtr I & Gtr II
|----------||----------||----------||----------||----------||--8----5--| Flange effect
|-----------| |-----------| |-----------| |-----------||-----------| |-----------| |-----------| |-----------||-----------| |-----------| |-----------| |-----------||-----------| |-----------| |-----------| |-----------||-----------| |-----------| |-----------| |-----------||--0-0-0-0--| x8 |--5-5-5-5--| x4 |--8-8-8-8--| x2 |--5-5-5-5--| x2PM........ PM........ PM........ PM........
Bridge Gtr I & Gtr II
|----------|----------|----------||----------|----------|----------||----------|----------|----------||--5----9--|--5-4--2--|--5----7--||--3----7--|--3-2--0--|--3----5--||----------|----------|----------|
Chorus Gtr I & Gtr II
|-----------------|--------------------| |------||-----------------|--------------------| |------||-----------------|--------------------| |------||-------7-9-------|--5-----5--7-----7--| |--9\--||--2----5-7----7--|--3--5--3--5--7--5--| |--7\--||--0-----------5--|-----3--------5-----| x2 |------|
Verse 2 Gtr I & Gtr II
|----------||----------||----------||--5-------||--3----7--||-------5--| Flange effect
|-----------| |-----------| |-----------| |-----------||-----------| |-----------| |-----------| |-----------||-----------| |-----------| |-----------| |-----------||-----------| |-----------| |-----------| |-----------||-----------| |-----------| |-----------| |-----------||--0-0-0-0--| x8 |--5-5-5-5--| x4 |--8-8-8-8--| x2 |--5-5-5-5--| x2PM........ PM........ PM........ PM........
Bridge Chorus Solo Gtr I
|-----------------------------------------||----------8-7----------------------------||--9---7-9-----9-7------------------------||-------------------10-9-7----------------||--------------------------10-9-7---<7>~--||-----------------------------------------| PM.............
|-------------------------------------------||-------------------------------------------||-------------------------------------------||----------<5>---<7>-5h7p5-4----------------||--5-7-7-7-----7-------------5--3--5--7--5--||-------------------------------------------|
|------------| |-------||--17p15-----| |--18~--||--------16--| |-------||------------| |-------||------------| |-------||------------| x8 |-------|
|---------------------------------------------------------||--20p17-----20p17-----20p17-----20p17------20p17--20p17--||--------19--------19--------19--------19-----------------||---------------------------------------------------------||---------------------------------------------------------||---------------------------------------------------------|
Gtr I|-------------------------------------22-20-19-------------------------------|------||----------------------------17-18-20----------22-20-19----------------------|------||-------------------16-17-19----------------------------21-19-17-------------|------||----------15-17-19----------------------------------------------21-19-17----|------||-15-17-19----------------------------------------------------------------19-|-X//--||----------------------------------------------------------------------------|-X//--|
|Gtr II|----------------------------------------------------------------------------|------||----------------------------------------------------------------------------|------||----------------------------------------------------------------------------|------||-5-----------------------5-----------7-----------------------7-----------9--|--X//-||-3-----------5-----------3-----------5-----------7-----------5-----------7--|--X//-||-------------3-----------------------------------5--------------------------|------|
Break Gtr I & Gtr II
|--------------|--------------||--------------|--------------||--------------|--------------||--------------|--------------||--2------7----|--7-7-7--X//--||--0----X-5----|--5-5-5--X//--|
Chorus Gtr I & Gtr II
|-----------------|--------------------||-----------------|--------------------||-----------------|--------------------||-------7-9-------|--5-----5--7-----7--||--2----5-7----7--|--3--5--3--5--7--5--||--0-----------5--|-----3--------5-----| x4
Outro Gtr I & Gtr II
|--------------|--------|------||--------------|--------|------||--------------|--------|------||--5--4--2-----|--2*----|--9\--||--3--2--0--5--|--2*----|--7\--||-----------3--|--0*----|------| *Ad lib here, good solo spot
Tap to rate this tab
 
# A B C D E F G H I J K L M N O P Q R S T U V W X Y Z