Terasbetoni - Sotureille tab

Artist:    Teräsbetoni
Song:      Sotureille
Album:     Vaadimme Metallia
Tabbed by: xHellbound


All the chords should be correct, but I guessed on the dive bombs.


X   - mute
/   - slide up
\   - slide down
d   - whammy dive
^   - bend
X\\ - pick scrape


0:05 0:14|-------------------|-------||-------------------|--20d--||--9------7--2--9\--|--21d--||--9--X-X-7--2--9\--|-------||--7--X-X-5--0--7\--|-------||-------------------|-------|
Verse
0:22 0:28 |---------|------------------||---------|------------------||--7--9\--|-----2------------||--7--9\--|-----2--------9\--||--5--7\--|-----0--------7\--||---------|--\-------3^--0---|
0:41|-------------------||-------------------||--5------7---------||--5------7------4--||--3------5------5--||-------------------|
|Gtr 2|-------------------||-------------------||--5--5/7-7---------||--5--5/7-7--7\4-4--||--3--3/5-5--5\5-5--||-------------------|
Chorus
0:46 0:52|--------------------|--------------------||--------------------|--------------------||--5----7----5-------|--5---------5----7--||--5----7----5----2--|--5----2----5----7--||--3----5----3----2--|--3----2----3----5--||-----------------0--|-------0------------|
0:58 1:04 |--------------------|----------------------||--------------------|----------------------||--5----7----5-------|--5---------5--7--9\--||--5----7----5----2--|--5----2----5--7--9\--||--3----5----3----2--|--3----2----3--5--7\--||-----------------0--|-------0--------------|
1:11|-----------||--22d------||--23d------||-----------||-----------||-------0*--| *Hold the dive and release
Verse
1:15 1:21 1:26|---------|---------|------------------||---------|---------|------------------||--7--9\--|--7--9\--|-----2------------||--7--9\--|--7--9\--|-----2--------9\--||--5--7\--|--5--7\--|-----0--------7\--||---------|---------|--\-------3^--0---|
1:39|-------------------||-------------------||--5------7---------||--5------7------4--||--3------5------5--||-------------------|
|Gtr 2|-------------------||-------------------||--5--5/7-7---------||--5--5/7-7--7\4-4--||--3--3/5-5--5\5-5--||-------------------|
Chorus
1:45 1:51|--------------------|--------------------||--------------------|--------------------||--5----7----5-------|--5---------5----7--||--5----7----5----2--|--5----2----5----7--||--3----5----3----2--|--3----2----3----5--||-----------------0--|-------0------------|
1:57 2:02 |--------------------|----------------------||--------------------|----------------------||--5----7----5-------|--5---------5--7--9\--||--5----7----5----2--|--5----2----5--7--9\--||--3----5----3----2--|--3----2----3--5--7\--||-----------------0--|-------0--------------|
2:10|-------------||-------------||-------------||--------X\\--||--------X\\--||--0*---------| *Volume Swell
Chorus
2:14 2:20|--------------------|--------------------||--------------------|--------------------||--5----7----5-------|--5---------5----7--||--5----7----5----2--|--5----2----5----7--||--3----5----3----2--|--3----2----3----5--||-----------------0--|-------0------------|
2:26 2:31 |--------------------|----------------------||--------------------|----------------------||--5----7----5-------|--5---------5--7--9\--||--5----7----5----2--|--5----2----5--7--9\--||--3----5----3----2--|--3----2----3--5--7\--||-----------------0--|-------0--------------|
Tap to rate this tab
 
# A B C D E F G H I J K L M N O P Q R S T U V W X Y Z