Terasbetoni – Orjakaleeri tab

Artist:    Teräsbetoni
Song:      Orjakaleeri
Album:     Myrskyntuoja
Tabbed by: xHellbound



X// - pick slide
b   - full bend
/   - slide
h   - hammer on
p   - pull off



Intro

|-------||-------||-------||-------||--X//--||--X//--|
|-------------------------------------||--------------------------(8---10-)--||--------------------------(10b-12b)--||-------------------------------------||--222-222-2--2222-222-222--5---7-----||--000-000-0--0000-000-000--3---5-----| PM... ... . .... ... ...
|------------------------(8---10-)--||------------------------(11b-13b)--||-----------------------------------||-------------------------5---7-----||--22-2-22--2222-222-222--3---5-----||--00-0-00--0000-000-000------------| PM.. .. . .... ... ...
Verse
|----------------|-----------------------------------------||----------------|-----------------------------------------||----------------|-----------------------------------------||--9-9/----9-9/--|-----------------------------------------||--7-7/----7-7/--|------------2-2-2h3h5-3-3h5h7-5-5-5p3p2--||--0-0-----0-0---|--0-0-0h2h3------------------------------|
Bridge
|------------------|------------------|--------------||------------------|------------------|--------------||------------------|------------------|--------------||--2-------2-------|--4-------4-------|--7-5-7-5-X//-||--3--2-2--3--2-2--|--5--2-2--5--2-2--|--5-3-5-3-X//-||-----0-0-----0-0--|-----0-0-----0-0--|--------------|
|
|------------------|------------------|--------------||------------------|------------------|--------------||------------------|------------------|--------------||--5-------5-------|--7-------7-------|--7-5-7-5-X//-||--3--2-2--3--2-2--|--5--2-2--5--2-2--|--5-3-5-3-X//-||-----0-0-----0-0--|-----0-0-----0-0--|--------------|
Chorus
|-------------------------------------||-------------------------------------||-------------------------------------||-------------------------------------||--222-222-2--2222-222-222--5---7-----||--000-000-0--0000-000-000--3---5-----| PM... ... . .... ... ...
|-----------------------------------||-----------------------------------||-----------------------------------||-------------------------5---7-----||--22-2-22--2222-222-222--3---5-----||--00-0-00--0000-000-000------------| PM.. .. . .... ... ...
Verse/Bridge x4 x4|-----------------|---------|---------|------------||-----------------|---------|---------|------------||-----------------|---------|---------|------------||--9-9/--7-7/--2--|--5------|--7------|--7-5-7-X//-||--7-7/--5-5/--3--|--3------|--5------|--5-3-5-X//-||--0-0------------|----000--|----000--|------------| PM ... PM ...
Chorus
|----------------------------------||----------------------------------||----------------------------------||----------------------------------||--222-222-2--2222-222-222--5---7--||--000-000-0--0000-000-000--3---5--| PM... ... . .... ... ...
|--------------------------------||--------------------------------||--------------------------------||-------------------------5---7--||--22-2-22--2222-222-222--3---5--||--00-0-00--0000-000-000---------| PM.. .. . .... ... ...
3:40
|----------------------------------||----------------------------------||----------------------------------||---------------------------5---7--||--555-555-5--5555-555-555--3---5--||--333-333-3--3333-333-333---------| PM... ... . .... ... ...
|----------------------------||----------------------------||----------------------------||-------------------------5--||--77-7-77--7777-777-777--3--||--55-5-55--5555-555-555-----| PM.. .. . .... ... ...
Solo
|-----------------------------------------||-----------------------------------------||--10-10-10p9p7--9-9-9p7/5--7-7-7p5/3--5--||-----------------------------------------||-----------------------------------------||-----------------------------------------|
|---------------------------------------||---------------------------------------||--7-7-7h9h10--9-9-9p7/5--7-7-7p5/3--2--||---------------------------------------||---------------------------------------||---------------------------------------|
|---------------------------------------------||--11-11-11p10p8--10-10-10p8/6--8-8-8p6/5--6--||---------------------------------------------||---------------------------------------------||---------------------------------------------||---------------------------------------------|
|--------5h6h8-8p6p5-----------||--5h6h8-------------8p6p5-----||---------------------------7--||------------------------------||------------------------------||------------------------------|
|---------------------------------------------||--11-11-11p10p8--10-10-10p8/6--8-8-8p6/5--6--||---------------------------------------------||---------------------------------------------||---------------------------------------------||---------------------------------------------|
|------5----------|--------------8-10--||--6-8---8-6-5----|--------8-10--------||--------------7--|--9-10--------------||-----------------|--------------------||-----------------|--------------------||-----------------|--------------------|
Outro
|-------||-------||-------||-------||--X//--||--X//--|
|----------------------------------||----------------------------------||----------------------------------||----------------------------------||--222-222-2--2222-222-222--5---7--||--000-000-0--0000-000-000--3---5--| PM... ... . .... ... ...
|--------------------------------||--------------------------------||--------------------------------||-------------------------5---7--||--22-2-22--2222-222-222--3---5--||--00-0-00--0000-000-000---------| PM.. .. . .... ... ...
|-----------------------------------------||-----------------------------------------||-----------------------------------------||-----------------------------------------||------------2-2-2h3h5-3-3h5h7-5-5-5p3p2--||--0-0-0h2h3------------------------------|
|--------------------------------||--------------------------------||--------------------------------||--5----7----999-999-999-999-9/--||--3----5----777-777-777-777-7/--||--------------------------------|
Please rate this tab:
x1.0