Tesla - Forever More tab

tab by: behnam h.
emil: fixxxeroftherock@yahoo.com
==================================================
Tune: Drop C#

Intro: acoustic guitar (tune half step down)||---------1---0---------------------------1---0---------------|||-------------------------1---3---------------------------3---|||-----2-----------------------------------------------0-------|||-0-------------------2---------------3-----------------------|||-----------------0---------------1---------------------------|||-------------------------------------------------3-----------|
---------1---0---------------------------1---0---------------||-------------------------1---3---------------------------8---||-----2-----------------------------------------------7-------||-0-------------------2---------------3-----------------------||-----------------0---------------1---------------------------||-------------------------------------------------8-----------||
intro & chorous Gtr. 1|---------------------------------------------------------------------||---------------------------------------------------------------------||---------------------------------------------------------------------||-0-0-0-0-7-7-7-7-8-8-8-8-5-5-5-5-0-0-0-0-7-7-7-7-8-8-8-8-10-10-10-10-||-0-0-0-0-7-7-7-7-8-8-8-8-5-5-5-5-0-0-0-0-7-7-7-7-8-8-8-8-10-10-10-10-||-0-0-0-0-7-7-7-7-8-8-8-8-5-5-5-5-0-0-0-0-7-7-7-7-8-8-8-8-10-10-10-10-|
Gtr. 2|-----------------------------------------------||-6-5---------6-5---------6-5---------6-5----8--||-------5-7---------7-----------5-7-------------||-----------------------------------------------||-----------------------------------------------||-----------------------------------------------|
Gtr. 3|-----------------------------------------------||-10-8--------10-8--------10-8--------10-8--13--||-------9-10--------10----------9-10------------||-----------------------------------------------||-----------------------------------------------||-----------------------------------------------|
Verse Gtr. 1|----------------------------------------------------------------||----------------------------------------------------------------||-PM.....----------PM------PM.....----------PM-------------------||-0-0-0-0-0---------0-3----2-2-2-2-2---------2-3-----------------||-0-0-0-0-0---------0-3----2-2-2-2-2---------2-3-----------------||-0-0-0-0-0---------0-3----2-2-2-2-2---------2-3-----------------|
Gtr. 2|-------0---------0--||-----3---------3----||---2---------1------||-0---------2--------||--------------------||--------------------|
Gtr. 3|---0-----0-----0-----0-----0-------0-----0-----0-----0-----0-----||-----3-----3-----3-----3-----3-------3-----3-----3-----3-----3---||-2-----2-----2-----2-----2-----2-1-----1-----1-----1-----1-----1-||-----------------------------------------------------------------||-----------------------------------------------------------------||-----------------------------------------------------------------|
Bridge Gtr. 1|----------------------------------------------------------------------||----------------------------------------------------------------------||----------------------------------------------------------------------||-8-8-8-8-8-8-8-5-5-5-5-5-5-5-5-5------8-8-8-8-8-8-8-7-7-7-7-7-7-7-7-7-||-8-8-8-8-8-8-8-5-5-5-5-5-5-5-5-5—(x2)-8-8-8-8-8-8-8-7-7-7-7-7-7-7-7-7-||-8-8-8-8-8-8-8-5-5-5-5-5-5-5-5-5------8-8-8-8-8-8-8-7-7-7-7-7-7-7-7-7-|
Gtr. 2|-----------------------------------------------------------------||-6-5---6---------6-5---6----------6-5---6---5---6-5-6-5-6-5-6----||-----------7---------------7-------------------------------------||-----------------------------------------------------------------||-----------------------------------------------------------------||-----------------------------------------------------------------|
Gtr. 3|----------------------------------------------------------------------||----------------------------------------------------------------------||-7-7-5-5-7-7-5-5-7-7-5-5-7-7-5-5-7-7-5-5-----5-5-7-7-5-5--------------||-----------------------------------------7-7-------------7-7-5-5------|(x2)|----------------------------------------------------------------------||----------------------------------------------------------------------|
----------------------------------------------------------------|----------------------------------------------------------------|-7-7-5-5-7-7-5-5-7-7-5-5-7-7-6-6-7-7-6-6-7-7-6-6-7-7-6-6-7-7-6--|----------------------------------------------------------------|----------------------------------------------------------------|----------------------------------------------------------------|
Pre Solo|-------0-------0-------0-------0-------0-------0---------5--------||-----3-------3-------3-------3-------3-------3---------5---5------||---3-------3-------2-------2-------1-------1---------6-------6----||-5-------5-------3-------3-------2-------2---------7-----------7--||-------------------------------------------------0----------------||------------------------------------------------------------------|
-----0-------0--------0----------0-------------------|-----6-------8--------11---------10------------------|---7---7---9---9---12----12---10----10--(x2)---------|-0-------0-------0----------0------------------------|-----------------------------------------------------|-----------------------------------------------------|
Solo (play with chorous)|-13fbr-12---10-12-13-12-10-13-12-10------------------------------||------------------------------------13------------------10-------||---------------------------------------12-14b(1.5)---12----------||-----------------------------------------------------------------||-----------------------------------------------------------------||-----------------------------------------------------------------|
|-----------------------------------12----12-13-12-13-15fb--------||--------------------13fb-----14-15----15-------------------------||-12fbr—(12)fbr--p10----------------------------------------------||-----------------------------------------------------------------||-----------------------------------------------------------------||-----------------------------------------------------------------|
|----------------/13----/15--------||--/15----/17----------------------||----------------------------------||----------------------------------||----------------------------------||----------------------------------|
|-13-12-10-13-12-10-13-12-15-13-12-15-13-12-15-13---------------------||---------------------------------------------------------------------||---------------------------------------------------------------------||---------------------------------------------------------------------||---------------------------------------------------------------------||---------------------------------------------------------------------|
|
|-15-13-12-15-13-12-15-13-17-15-13-17-15-13-17-15---------------------||---------------------------------------------------------------------||---------------------------------------------------------------------||---------------------------------------------------------------------||---------------------------------------------------------------------||---------------------------------------------------------------------|
|-17p15p13-17p15p13-17p15p13-17p15p13-20p18p17-20p18p17-20p18p17-20p18p17-||-------------------------------------------------------------------------||-------------------------------------------------------------------------||-------------------------------------------------------------------------||-------------------------------------------------------------------------||-------------------------------------------------------------------------|
|
|-20p18p17-20p18p17-20p18p17-20p18p17-22p20p18-22p20p18-22p20p18-22p20p18-||-------------------------------------------------------------------------||-------------------------------------------------------------------------||-------------------------------------------------------------------------||-------------------------------------------------------------------------||-------------------------------------------------------------------------|
|-20fb---------||--------------||--------------||--------------||--------------||--------------|
|
|-22fb---------||--------------||--------------||--------------||--------------||--------------|
Outro Gtr. 1|--------------------------------------------------------------||--------------------------------------------------------------||--------------------------------------------------------------||-0------------------------------------------------------------||-0------------------------------------------------------------||-0------------------------------------------------------------|
Gtr. 2|---------0--------------------||-----3-----3---3--------------||---2---2-----2-----.....------||-0----------------------------||------------------------------||------------------------------|
Tap to rate this tab
 
# A B C D E F G H I J K L M N O P Q R S T U V W X Y Z