Tesla – Love Song Live tab

Song: LOVE SONG (Live version)
by: Tesla
Tabber : bighabit69@iamwasted.com

I heard them play this song live on sum awards show i think, and this is
how the 1st intro went.

Theres Sum time changes so listen for those. And i didnt write out the rythem this time 
for the chords ...grrr lazy me lol.

If i missed anything or you find any errors . Please let me know.

Chords used:

          Em                   Bm                    A                   Am
      0 2 2 0 0 0          x 2 4 4 3 2          x 0 2 2 2 0          x 0 2 2 1 0

           G                    D                  Dsus4                  C
      3 2 0 0 0 3          x x 0 2 3 2          x x 0 2 3 3          x 3 2 0 1 0

         GIII
      3 5 5 4 3 3

First intro

Gtr I|-^0-0-----0-0-0-0-|-0-0-0-0-0----|----0-----------3-|-(3)-3-----3-3---2--||-^1---1---1-1-1-1-|-1-1-1-1-1----|-^1-------1-1-0-3-|-(3)---3---3-3---3--||-^2-------2-2-2-2-|-2-2-2-2-2----|-^2---2---2-2-0-0-|-(0)-------0-0-0-2--||-^2-----2-2-2-2-2-|-2-2-2-2-2----|-^2-----2-------0-|-(0)-------0-0-0-0--||-^0-------0-0-0-0-|---------0----|-^0---------------|--------------------||------------------|-3-3-3-3------|----------------3-|-(3)-----3----------|
|-(2)-2-----2-2-2---|-----0--(0)-0-0-----||-(3)---3---3-3-3-0-|-----1--(1)-1-1-----||-(2)-----2-2-2-2-0-|---2-2--(2)-2-2-0-0-||-(0)-------0-0-0---|-3---3--(3)-3-3-0-0-||-------------------|-----3--(3)-3-3-----||-------------------|--------------------|
H=H|-0--0-0-(0)-0-0---|-0-0-0-0-(0)-0-0----||-1--1-1-(1)-1-1-0-|-0-0-0-0-(0)-0-0-0--||-2--2-2-(2)-2-2-0-|-1-1-1-1-(1)-1-1-0--||-2--2-2-(2)-2-2-0-|-2-2-2-2-(2)-2-2----||-0--0-0-(0)-0-0---|-2-2-2-2-(2)-2-2----||------------------|-0-0-0-0-(0)-0-0----|
|-0-0-0-0-(0)-0-0-----|-0-0-0-0-0-(0)-0-0-0-0-|-1-1-1-1-(1)-2-2-----||-0-0-0-0-(0)-0-0-----|-1-1-1-1-1-(1)-1-1-1-0-|-3-3-3-3-(3)-3-3-0-0-||-1-1-1-1-(1)-1-1-----|-0-0-0-0-0-(0)-0-0-0-0-|-2-2-2-2-(2)-2-2-0-0-||-2-2-2-2-(2)-2-2-0-0-|-2-2-2-2-2-(2)-2-2-2---|-0-0-0-0-(0)-0-0-0-0-||-2-2-2-2-(2)-2-2-0-0-|-3-3-3-3-3-(3)-3-3-3---|---------------------||-0-0-0-0-(0)-0-0-----|-----------------------|---------------------|
|-0-0-0-0-0-0-0-0-0-0-----|-0-0-0-0-0-(0)-0-0---|-0-0-0-0-(0)-0-0----||-1-1-1-1-1-1-1-1-1-1-0-0-|-1-1-1-1-1-(1)-1-1-0-|-0-0-0-0-(0)-0-0----||-2-2-2-2-2-2-2-2-2-2-0-0-|-2-2-2-2-2-(2)-2-2-0-|-1-1-1-1-(1)-1-1-0--||-3-3-3-3-3-3-3-3-3-3-0-0-|-2-2-2-2-2-(2)-2-2-0-|-2-2-2-2-(2)-2-2-0--||-------------------------|-0-0-0-0-0-(0)-0-0---|-2-2-2-2-(2)-2-2----||-------------------------|---------------------|-0-0-0-0-(0)-0-0----|
|-0-0-0-0-(0)-0-0---|-0-0-0-0-0-0-0--|-^0---------5-7-8-7-5-||-0-0-0-0-(0)-0-0---|-0-0-0-0-0-0-0--|-^1-------5-----------||-1-1-1-1-(1)-1-1-0-|-1-1-1-1-1-1-1--|-^2-----5-------------||-2-2-2-2-(2)-2-2-0-|-2-2-2-2-2-2-2--|-^2---7---------------||-2-2-2-2-(2)-2-2---|-2-2-2-2-2-2-2--|-^0-------------------||-0-0-0-0-(0)-0-0---|-0-0-0-0-0-0-0--|----------------------|
|-7-5---5-------------------------|------------------------------------||-----8---8-5-7-5---5-------------|------------------------------------||-----------------8---8-7-8-7-5-7-|-5-4h5p4---4--------2---------------||---------------------------------|---------7----5-4-2---5-4-5-4-2-4-2-||---------------------------------|------------------------------------||---------------------------------|------------------------------------|
|------------------------------||------------------------------||------------------------------||---2--------------------------||-5---5-3-2h3p2---2------------||---------------5---5-3-5-3-2--|
|-3--0-15-13-12----------------------|-----------------||-0--0----------15-13-12-------------|-----------------||-0--0-------------------14-12-10----|-----------------||-0-------------------------------14-|-12--------------||------------------------------------|----15-14-12\--0-||-3----------------------------------|-----------------|
|-2--^2---5-7-8-7-5---5---7-5-|-8-7-5---5-----------5-7-8-5-7---||-3--^3S7-----------8---8-----|-------8---7-8-5-7-8-----------8-||-2--^2-----------------------|---------------------------------||-0--^0-----------------------|---------------------------------||-0--^0-----------------------|---------------------------------||-----------------------------|---------------------------------|
|-5--------------------------------||---7-8-7-5-7---5------------------||-------------8---7-8-5-7-5-4---4--||-----------------------------7----||----------------------------------||----------------------------------|
|-----------------------------------------||-----------------------------------------||-2---2-----------------------------------||---5---5-4-5-4-2-4-2-----2---------------||---------------------5-3---5-3-2---2-3-5-||---------------------------------5-------|
H.=H|---------------0-0-0-0-0-0-0-0-0-^0--|||---------------1-1-1-1-1-1-1-1-1-^0--|||---------------2-2-2-2-2-2-2-2-2-^1--|||---------------2-2-2-2-2-2-2-2-2-^2--|||-5-2-3p2p0-2-0-0-0-0-0-0-0-0-0-0-^2--|||---------------------------------^0--||
Intro
|------------|-------------|-------14-14-14-||-8----8p7p5-|-7\--3-3-3-3-|-(3)------------||------------|-------------|----------------||-0----------|-0-----------|----------------||------------|-------------|----------------||------------|-------------|----------------|
|-14p12p10-14p12p10-14p12p10-|-14p12p10-10-----||----------------------------|-----------------||----------------------------|-----------------||----------------------------|-----------------||----------------------------|-----------------||----------------------------|-----------------|||--2---3-2h3p2-0-|----------|------------|-----------||||o---------------|-2--3--5--|-3------3---|-0--2--3--o||||----------------|----------|------4---4-|-----------||||--0-------------|----------|----4-------|-----------||||o---------------|-0--------|-2----------|----------o||||----------------|----------|------------|-3---------|||----------|------------|------------|------------|-------------||-3--2--5--|-3------3---|-2------2---|-3------3---|-3------3----||----------|------0---0-|------2---0-|-2----2---2-|------2---0--||----------|----0-------|----2-------|----0-------|----0--------||-2--0-----|------------|-0----------|------------|-------------||-------4--|-3----------|------------|-2----------|-2-----------|
|----------|----------|--------------|----------|----------||-0--2--3--|----2--3--|-/5--3--2h3p2-|----2--3--|-0--2--3--||----------|-2--------|--------------|-2--------|----------||----------|----------|--------------|----------|----------||----------|----------|--------------|----------|----------||-3--------|-2--------|--0-----------|-2--------|-3--------|
|----------|--------------|--------|--------------------------------------||----2--3--|-/5--3--2h3p2-|-2------|--------------------------------------||-2--------|--------------|--------|-4p2p0-4p2p0-4p2p0-4p2p0-4p2p0-4p2p0--||----------|--------------|--------|--------------------------------------||----------|--------------|-0------|--------------------------------------||-2--------|--0-----------|--------|--------------------------------------|
|-------------------------------------|-------------------------------------||-------------------------------------|-------------------------------------||-4p2p0-4p2p0-4p2p0-4p2p0-4p2p0-4p2p0-|-4p2p0-4p2p0-4p2p0-4p2p0-4p2p0-4p2p0-||-------------------------------------|-------------------------------------||-------------------------------------|-------------------------------------||-------------------------------------|-------------------------------------|
I may have too many 4p20 on the 3rd string but the notes are there|-------------------------------------|----------------------------------------------------||-------------------------------------|----------------------------------------------------||-4p2p0-4p2p0-4p2p0-4p2p0-4p2p0-4p2p0-|-4p2p0-4p2p0-4p2p0-4p2p0-4p2p0-4p2p0----------------||-------------------------------------|-------------------------------------4p2p0----------||-------------------------------------|-------------------------------------------4p2p0----||-------------------------------------|----------------------------------------------------||-------------------------------------|-^2---3-2h3p2p0-||-------------------------------------|-^3-------------||-4p2p0-------------4p2p0-------------|-^2-------------||-------4p2p0-------------4p2p0-------|-^0-------------||-------------4p2p0-------------4p2p0-|-^0-------------||-------------------------------------|----------------|
|-----------|-----------|-----------|-2---3-2h3p2p0-||-^2--3--5--|-3--3------|-^0--2--3--|-3-------------||-^2--------|-4----4----|-^0--------|-2-------------||-^2--------|-4------4--|-^0--------|-0-------------||-^0--------|-2---------|-----------|-0-------------||-----------|-----------|-^3--------|---------------|
|-----------|------------|-----------|-2---3-2h3p2p0-|------------||-^2--3--5--|-3------3---|-^0--2--3--|---------------|-^2--3--5---||-^2--------|-4----4---4-|-^0--------|---------------|-^2---------||-^2--------|-4----------|-^0--------|-0-------------|-^2---------||-^0--------|-2--2-------|-----------|---------------|-^0---------||-----------|------------|-^3--------|---------------|------------|
|-----------|----------|-2---3-2h3p2p0-|----------|-----------||-3--3------|-0--2-----|---------------|-2--3--5--|-3--2--5---||-4----4----|-0-----0--|---------------|-2--------|-----------||-4------4--|-0--------|-0-------------|----------|-----------||-2---------|----------|---------------|----------|-2--0------||-----------|-3--------|---------------|----------|-------4---|
|------------|-----------|-2----3--|-10----||-3------3---|-2------2--|-3----5--|-10----||------0---0-|------2----|---------|-------||----0-------|----2------|-0-------|-------||------------|-0---------|---------|-------||-3----------|-----------|---------|-------|
|-------|--------7-7-||-7-5-3-5-(5)---5-7-7-||-------|--------8-8-||-8-7-5-7-(7)---7-8-8-||-------|--------7-7-||-7-------------7-7-7-||-------|--------0-0-||-0-----------0-0-----||-------|------------||---------------------||-------|------------||---------------------|
|-7-5-3-2-(2)-2-2-2S7-7-|-7-5-3-5-(5)---5-7-7-|-7-5-3-2-(2)--2--|||-8-7-5-3-(3)-3-3-3S8-8-|-8-7-5-7-(7)---7-8-8-|-8-7-5-3-(3)--3--|||-7-----2-(2)-2-2-2S7-7-|-7-------------7-7-7-|-7-----2-(2)--2--|||-0-----0-(0)-0-0-0-----|-0-----------0-------|-0------------0--|||-----------------------|---------------------|-----------------|||-----------------------|---------------------|-----------------||
Verse|-^0--0-0-0-0-0---|-------2-2-------------||-^0--0-0-0-0-0---|-------3-3-------------||-^0--0-0-0-0-0---|-------4-4-------------||-^2--2-2-2-2-2---|-----4-4-4---------0h2-||-^2--2-2-2-2-2-2-|-(2)-2-2-2-2-2-0h2-----||-^0--0-0-0-0-0---|-----------------------|
|----0-0-0-0-0-2-|-(2)-2-2-0-(0)-0-0-0-||----0-0-0-0-0-3-|-(3)-3-3-2-(2)-2-2-0-||----0-0-0-0-0-4-|-(4)-4-4-2-(2)-2-2-0-||----2-2-2-2-0-4-|-(4)-4-4-2-(2)-2-2-0-||----2-2-2-2---2-|-(2)-2-2-0-(0)-0-0---||-0--0-0-0-0-----|---------------------|
|-0-0-0-0-0-0-0-3-|-(3)-3-3-3--------------||-1-1-1-1-1-1-0-3-|-(3)-3-3-3--------------||-2-2-2-2-2-2-0-0-|-(0)-0-0-0----------0-0-||-2-2-2-2-2-2-0-0-|-(0)-0-0-0------0h2-0-0-||-0-0-0-0-0-0---2-|-(2)-2-2-2--0h2---------||---------------3-|-(3)-3-3-3--------------|
|-----2-2-2-2---2-|-(2)-2-2-2-2-2-3-2-2-2-3-2-0-0-||-----3-3-3-3-0-3-|-(3)-3-3-3-3-3-3-3-3-3-3-3-0-0-||-----4-4-4-4-0-2-|-(2)-2-2-2-2-2-2-2-2-2-2-2-0-0-||---4-4-4-4-4-0-0-|-(0)-0-0-0-0-0-0-0-0-0-0-0-0-0-||-2-2-2-2-2-2-----|-------------------------------||-----------------|-------------------------------|
|-0--0-0-0-0-0---|-------------------||-0--0-0-0-0-0---|-------3---2---3---||-0--0-0-0-0-0---|---------4---------||-2--2-2-2-2-2---|-----4-------4---4-||-2--2-2-2-2-2-2-|-(2)-2-------------||-0--0-0-0-0-0---|-------------------|
|----0-0-0-0-0-2-|-(2)-2-2-0-0-(0)-0-0-0-0-||----0-0-0-0-0-3-|-(3)-3-3-0-2-(2)-2-2-2-0-||----0-0-0-0-0-4-|-(4)-4-4-0-2-(2)-2-2-2-0-||----2-2-2-2-0-4-|-(4)-4-4-0-2-(2)-2-2-2-0-||----2-2-2-2---2-|-(2)-2-2---0-(0)-0-0-0---||-0--0-0-0-0-----|-------------------------|
|-^0------0-------|-----------------------------||-^1--------1-----|-----------------------------||-^2----2-----0-0-|-(0)-----------0-----2p0-----||-^2--2---------0-|-(0)-----0-0h2---2p0-----2p0-||-^0--0---------2-|-(2)-0h2---------------------||---------------3-|-(3)-------------------------|
|----2--2---2-|-(2)--2-2-2-2-2S7-7-||----3--3---3-|-(3)--3-3-3-3-3S8-8-||----4--4---2-|-(2)--2-2-2-2-2S7-7-||----4--4---0-|-(0)--0-0-0-0-0-----||-2--2--2-----|--------------------||-------------|--------------------|
|-7-5-3-5-(5)-5-5-5-7-7-|-7-5-3-2-(2)-2-2-2-3-3-|||-8-7-5-7-(7)-7-7-7-8-8-|-8-7-5-3-(3)-3-3-3-0-0-|||-7-----------7-7-7-7-7-|-7-----2-(2)-2-2-2-0-0-|||-0-----0-(0)---0-0-----|-0-----0-(0)-0-0-0-0-0-|||-----------------------|-------------------2-2-|||-----------------------|-------------------3-3-||
Chorus||------3-3-----2---|-----3-3-3---2-2-2-2-3-|||o-----0-0-----3-0-|-----0-0-0---3-3-3-3-0-|||------0-0-----2-0-|-----0-0-0---2-2-2-2-0-|||--0-0-0-0-----0---|-0-0-0-0-0---0-0-0-0---|||o-2-2-2-2---------|-2-2-2-2-2-------------|||--3-3-3-3-2-2-2---|-3-3-3-3-3-2-2-2-2-2---|
|-----3-3-3-----2-2---|-----3-3-3---2-2-2-0-0-||-----0-0-0-----3-3-0-|-----0-0-0---3-3-3-0-0-||-----0-0-0-----2-2-0-|-----0-0-0---2-2-2-0-0-||-----0-0-0-----0-0---|-----0-0-0---0-0-0-----||-2-2-2-2-2-----------|-2-2-2-2-2-------------||-3-3-3-3-3-2-2-2-2---|-3-3-3-3-3-2-2-2-2-----|
Gtr I|-0---0---0---0--|-0---0-0-0-0-0-0-0-0-||-0---0---0---0--|-1---1-1-1-1-1-1-0-0-||-0---0---0---0--|-0---0-0-0-0-0-0-0-0-||-2---2---2---2--|-2---2-2-2-2-2-2-----||-2---2---2---2--|-3---3-3-3-3-3-3-----||-0---0---0---0--|---------------------|
|
| Gtr II|----------------|---------------------||---0---0---0----|-----------1---------||-----0---0------|-----0-------0---0---||-2-----------0--|---2-----------2-----||----------------|-3-----3-------------||----------------|---------------------|
Gtrs I, II|-2--2-2-3-2-2-2-2-|-3-2-0-2-(2)-2-2-2-2-2--|||-3--3-3-3-3-3-3-3-|-3-3-3-3-(3)-3-3-3-3-3-o|||-2--2-2-2-2-2-2-2-|-2-2-2-2-(2)-2-2-2-2-2--|||-0--0-0-0-0-0-0-0-|-0-0-0-0-(0)-0-0-0-0-0--|||------------------|-----------------------o|||------------------|------------------------||
Acoustic Solo Em Bm Gtr II
|-3-2-0-2-(2)-2-2-2-2-2-||---------------------------------||-3-3-3-3-(3)-3-3-3-3-3-||---------------------------------||-2-2-2-2-(2)-2-2-2-2-2-||--------------12--14b16-14-12-16-||-0-0-0-0-(0)-0-0-0-0-0-||--------12-14--------------------||-----------------------||--12s14--------------------------||-----------------------||---------------------------------|
|------------------------------------------||---------15----14-----15------------------||-(16)-16----16----16-----16-(16)-16-16\---||------------------------------------------||------------------------------------------||------------------------------------------|
Em Bm A
|------------------------------|--------------------||------------------------------|--------------------||------12-14-12-14b16-14-12-11-|-(11)----9-(9)------||--/14-------------------------|--------------------||------------------------------|--------------------||------------------------------|--------------------|
Am G
|-------------------------------|------------15----15----15----15----15\-----||--------13-12-10--10-12--10----|--------------------------------------------||-5-4-2----------------------12-|-(12)-14s16----16----16----16----16------12-||-------------------------------|--------------------------------------------||-------------------------------|--------------------------------------------||-------------------------------|--------------------------------------------|
Bm D
|------------------------------------|--------------------------------||------------------------------------|--------------------------------||-12s11-11-11-11s9-9-9-9s7-7-7-7h9-7-|-(7)-------7---9b10--9b10--7----||------------------------------------|-----7-7h9---9------------------||------------------------------------|--------------------------------||------------------------------------|--------------------------------|
Em Bm
|-------------------------------------------------||-------------------------------------------------||---------------12----12-14-14pb16r(14)p12-14b16==||---------12-14----14-----------------------------||---12s14-----------------------------------------||-------------------------------------------------|
|--------------------------------------------------||-------------------15----15----15-----------------||-(14)--14-14-14-14----14----14----14-14r(14)p=12--||--------------------------------------------------||--------------------------------------------------||--------------------------------------------------|
Em Bm A
|-------------------------------------|----------------------||-------------------------------------|----------------------||-14-12-11-------12-------------------|----------------------||----------12s14----14-12----------14-|-(14)-12h14-12--------||-------------------------14-12-12----|----------------------||-------------------------------------|----------------------|
Am G
~~|----------------------------------------------------||-13-12-10-13-12-10-13-12-10-13-12-10-10h12p=10------||-----------------------------------------------12---||----------------------------------------------------||----------------------------------------------------||----------------------------------------------------|
|-----------------------------------------------||-------------------20----20----20----20\-------||-(12)------------------------------------12-12-||-------19b21==(19)----19----19----19-----------||-----------------------------------------------||-----------------------------------------------|
Bm D
|------------------------------------|------------------||------------------------------------|------------------||-12s11-11-11-11s9-9-9-9s7-7-7-7h9-7-|-(7)--------------||------------------------------------|------------------||------------------------------------|------------------||------------------------------------|------------------|
Guitar Solo DDus4 DDuDsusD Em Bm Gtr II
Gtr III ~~~~ ~~~|------------------||----------------------------------||------------------||----15b17-(15)------15b17-(15)-15-||------------------||----------------------------------||------------------||----------------------------------||------------------||----------------------------------||-----------/x\----||-0--------------0-0---------------|
~~~~~~ ~~~~|-----------------------------12-------------------------------||-(15)-12h15p12------------12----15-12-------------------------||---------------14b16-(14)-------------14b16==(14)----(14)r\---||--------------------------------------------------------------||--------------------------------------------------------------||--------------------------------------------------------------|
Em Bm A
~~~~~~~~|-------------------------|----------------------||-------------------------|----------------------||-------------------------|----------------------||--------5-7b9-(7)-7-5-/9-|-(9)---7-9-7-(7)------||----5s7------------------|----------------------||-0-----------------------|----------------------|
Am G
~~~~~~~ ~~ ~~|-----------------------------------||------------13-12-10--10h12p=10----||-5-4-2-(2)\---------------------12-||-----------------------------------||-----------------------------------||-----------------------------------|
G
~~~~|------------------15----------------------------------||---------------------15-------------------------------||-(12)-14b16==(14)-------14--(14)r(14)p=12----12-12-12-||------------------------------------------14----------||------------------------------------------------------||------------------------------------------------------|
Bm D
~~~~~~~~|------------------------------------|-----------------------------------||------------------------------------|-----------------------------------||-12s11-11-11-11s9-9-9-9s7-7-7-7h9-7-|-(7)-------7---9b11--9b11--7-------||------------------------------------|-----7-7h9---9---------------------||------------------------------------|------------------------------x\---||------------------------------------|-----------------------------------|
Em Bm
~~~~~ ~~~~~~~~~ ~~|----17b19--------------------|-----------------------------12-----------------------------||---------------15b17-(15)-15-|-(15)-12h15p12------------12----15-12------------12---------||-----------------------------|---------------14b16-(14)-------------14b16-(14)----14-12---||-----------------------------|------------------------------------------------------------||-----------------------------|------------------------------------------------------------||-0---------0-0---------------|------------------------------------------------------------|
Em Bm
~~~~~ ~~|-----------17b19===(17)-(17)rp15-17--||----15b17----------------------------||-------------------------------------||-------------------------------------||-------------------------------------||-0-----------------------------------|
A
~~~~ ~~~~~~~~|-(17)-17b19--17pb19r(17)p15-17--(17)---17\----||--------------------------------------------x-||----------------------------------------------||----------------------------------------------||----------------------------------------------||----------------------------------------------|
Am G
~~|--------------------------------------------------||-13-12-10-13-12-10-13-12-10-13-12-10-10h12p=10----||-----------------------------------------------12-||--------------------------------------------------||--------------------------------------------------||--------------------------------------------------|
~~~~|------------------15----------------------------------||---------------------15-------------------------------||-(12)-14b16==(14)-------14--(14)r(14)p=12----12-12-12-||------------------------------------------14----------||------------------------------------------------------||------------------------------------------------------|
Bm D
~~~~~~~~ ~|------------------------------------|----------------------------||------------------------------------|----------------------------||-12s11-11-11-11s9-9-9-9s7-7-7-7h9-7-|-(7)------------------7-----||------------------------------------|------------------7h9-------||------------------------------------|-----5-9s7-5--7h9-----------||------------------------------------|----------------------------|
Chorus DsusD DsuD4 DsuD4 G D
Gtr III ~~~~~~~|--------------------------------------------||---------|------------||--------15-15-(15)---15-15-15-15-15-15-15---||---------|------------||-----14--------------14-14-14-14-14-14-14---||---------|------------||-/16-----------------16-16-16-16-16-16-16---||---------|------------||--------------------------------------------||---------|------------||--------------------------------------------||---------|------------|
Em D C G D
|---------|------------|---------|-(2)-2-2-2-2--------------------------||---------|------------|---------|-(3)-3-3-3-3--------------------------||---------|------------|---------|-(2)-2-2-2-2-------12----------12-----||---------|------------|---------|-(0)-0-0-0-0-------12-14-12----12-----||---------|------------|---------|-------------12h14----------14----14--||---------|------------|---------|--------------------------------------|
Em D C
|----------------------------|-------------------------------------------------------||----------------------------|------20-------20--------------------------------------||-12----12----12-x-----19b21-|-(19)----19b21----19b21-(19)-19b21--19b21-(19)-19b21---||-12----12----12---x---------|-------------------------------------------------------||----14----14--------x-------|-------------------------------------------------------||----------------------------|-------------------------------------------------------|
G D
|---------|-(2)-2-2---19-17--------------------------------------||---------|-(3)-3-3---------20-19-17----19-17--------------------||---------|-(2)-2-2------------------19-------19-17-16-----------||---------|-(0)-0-0------------------------------------19--17\---||---------|------------------------------------------------------||---------|------------------------------------------------------|
Em D C
|---------|-(0)-0-0-0-0-0--------------|||---------|-(1)-1-1-1-1-1--------------|||---------|-(0)-0-0-0-0-0---------0-2--|||---------|-(2)-2-2-2-2-2-2-4-2-4------|||---------|-(3)-3-3-3-3-3--------------|||---------|----------------------------||
Outro Solo G D
Gtr III ~~|-17b19--17b19--17b19===17r(17)p15-17-|-(17)-15------------------15----15h17p15-------||-------------------------------------|---------17b19-15---15h17----17----------17-15-||-------------------------------------|-----------------------------------------------||-------------------------------------|-----------------------------------------------||-------------------------------------|-----------------------------------------------||-------------------------------------|-----------------------------------------------|
Em D C
~~~~~~~~~~~~~~ ~~|-----------------------------|-------------------------13----------------------||-17b20r=(17)b20===(17)r---15-|-(15)b15.5---------------------------------------||--------------------------15-|-(15)b15.5-----------/15----15b17===(15)r-12\----||-----------------------------|-----------17-15-17------------------------------||-----------------------------|-------------------------------------------------||-----------------------------|-------------------------------------------------|
G D
~~~|----------------------------------------------------------||---------------------15------------15---------------------||-------12-14b16-(14)----14b16-(14)----14b16-(14)-14b16-14-||-12h14----------------------------------------------------||----------------------------------------------------------||----------------------------------------------------------|
~~~~~~|-----------------------------------------||-----------------------------------------||-(14)-12-12-12s11-11-11-11s9-9-9-9s7---7-||-------------------------------------9---||-----------------------------------------||-----------------------------------------|
Em D C
~ ~~~~~~~|-------------------------------------------||---------------15------------15------------||-9--14b16-(14)----14b16-(14)----14/-19b21==||-------------------------------------------||-------------------------------------------||-------------------------------------------|
~~~~~~~|----------------------------------------------------------------------------|||-------17----17-20p17h20p17-------------------------------------------------|||-(19)r----19----------------19p16h19p16-16p14h16p14-16p14-----14------------|||-----------------------------------------------------------17----17S12-12---|||----------------------------------------------------------------------------|||----------------------------------------------------------------------------||
Em D C Gtrs I, and III i think
|---------|-----||---------|-----||---------|-----||---------|-----||---------|-----||---------|-----|
Gtr III|---------------------------------3p0h3p0--------||-------------------------3p0h3p0-------------3--||-2h4p2p0---------2p0h2p0---------------------5--||---------2p0h2p0-----------------------------5--||---------------------------------------------3--||-----------------------------------------0-0----|
|------------:------------------------:|-(3)--------:------------------------:|-(5)--------:-------5----------------:|-(5)--------:-----5----2p0h2p0-2p0---:|-(3)--------:-5s7--------------------:|------------:------------------------:
|------------------------:---------|||------------1-----(1)\--:---------|||--------0--(0)----(0)\--:---------|||----2--(2)-(2)----(2)\--:---------|||-3-(3)-(3)-(3)----(3)\--:---------|||------------------------:---------||
|
|------------------------:---------|||------------------------:---------|||------------------------:---------|||------------------------:---------|||------------------------:---------|||------------------------:---------||
|-------------3p2-2---|-----------------------------||-------------3-------|---------3-(3)-----3-----0---||-------0---2-2-----0-|-------0-------2-------------||-----0---0-----------|-----0-----------------------||---2-----------------|---2-------------------------||-3-------2-----------|-3---------------------------|
|
| Gtr II|-------------3p2-----|-------------------3p2-------||-----------------3---|-----------------------3-----||-------0---2---------|-------0---------2-----------||-----0---0-----------|-----0------0----------------||---2-----------------|---2-------------------------||-3-------2-----------|-3----------2----------------|
|---------------------|-----------------------------------||-(0)-----------------|-----------------------------------||---------------------|-----------------12-14-14pb16r(14)-||---------------------|-----------12h14-------------------||---------------------|-----------------------------------||---------------------|-----------------------------------|
|
|---------------3p2---|------------------3p=2-------------||-------------------3-|------------------------3----------||---------0---2-------|-------0----2----------------------||-------0---0---------|-----0---0-------------------------||-----2---------------|---2-------------------------------||--3--------2---------|-3-------2-------------------------|
|---------------15---------------------------------||------15b17=======15r==(15)p12-------12-----------||-12----------------------------14b16----14-12-----||----------------------------------------------14--||--------------------------------------------------||--------------------------------------------------|
|
|--------------------------------3p====2-----------||-----------------------------------------3--------||-------------0-------2----------------------------||-------0--------0---------------------------------||----2---------------------------------------------||--3-------------2---------------------------------|
~~|--------------------------------------||--------------------------------------||-12---------12-14-14b16-14-12---(12)\-||------12h14---------------------------||--------------------------------------||--------------------------------------|
|
|----------------------------3p2-------||----------------------------------3---||-------------0-----------2------------||-------0-----------0------------------||----2---------------------------------||--3----------------2------------------|
|-----------------------------------------|--------------------|--------|||-----------------------------------------|--------------------|--------|||-----0-------12-14-14b16r(14)-12------12-|-12-(12)\------0----|-(0)----|||---0---12h14-----------------------14----|---------------3----|-(3)----|||-----------------------------------------|---------------3----|-(3)----|||-3---------------------------------------|---------------1----|-(1)----||
|
|-------------------------------3p2-------|--------------------|--------|||------------------------------------3----|--------------------|--------|||--------0-----------2--------------------|------------0-^0----|-(0)----|||-----0--------0--------------------------|----------0---^3----|-(3)----|||---2-------------------------------------|------2-------^3----|-(3)----|||-3------------2--------------------------|--3-----------^1----|-(1)----||
TP ~~~~~~~|-3--------|--------------------------------------------:|-3--------|-12-----------------------------------------:|-4--------|----14-12----------14-12-(12)---------------:|-5--------|----------14-12-14------------------------2-:|-5--------|------------------------------12h14-12h14---:|-3--------|--------------------------------------------:
~~~~~~~~~~~~~~~~~~~|-------------------------:----------------||--------------15-15------:-15--(15)\------||-14b16==(14)r----14------:-14--(14)\------||-------------------------:----------------||-------------------------:----------------||-------------------------:----------------|
Please rate this tab:
x1.0