Testament – Trial By Fire tab

G||------------------|------------------|------------------|------------------|D||------------------|------------------|------------------|------------------|A||------------------|------------------|------------------|------------------|E||------------------|------------------|------------------|------------------|
------------------|----------|------------------------|--------------------|------------------|----------|--4---5---4-------------|--------------------|------------------|----------|--------------3---2--0--|--------------------|------------------|----------|------------------------|--4--------3--------|
-----------|------------------------|----------------------|-----------|-----------|--4---5---4----------7--|--6-------6--5~-------|--4~-------|-----------|--------------3---2-----|--------6-------------|-----------|--2--------|------------------------|----------------------|-----------|
--11---12---11--------------|----------------------|------------------|-----------------10---9--7--|--6~------6--5~-------|------------------|----------------------------|--------6-------------|------------------|----------------------------|----------------------|------------------|
--------------------------|--------------------------|------------------------|--------------------------|--------------------------|------------------------|--------------------------|--------------------------|-----3--------2----0----|--2--2--2--2--2--2--2--2--|--2--0--0--3--0--0--2--0--|--0-----0--0------------|
-------------------------|--------------------------|--------------------------|-------------------------|--------------------------|--------------------------|-------------------------|--------------------------|--------------------------|--4----4--4--4--0--4--3--|----3--3--0--3-0-0--3--3--|--2--2--2--2--2--2--2--2--|
--------------------------|------------------------|-------------------------|--------------------------|------------------------|-------------------------|--------------------------|-----3--------2----0----|-------------------------|--2--0--0--3--0--0--2--0--|--0-----0--0------------|--4----4--4--4--0--4--3--|
--------------------------|--------------------------|-------------------------|--------------------------|--------------------------|-------------------------|--------------------------|--------------------------|--2--1-------------------|----3--3--0--3-0-0--3--3--|--0--1--2--1--0--1--2--0--|--------0--2----0--3--2--|
--------------------------|-------------------------|--------------------------|--------------------------|-------------------------|--------------------------|--------------------------|--2--1-------------------|--------------------------|--0--1--2--1--0--1--2--0--|--------0--2----0--3--2--|--0--1--2--1--0--1--2--0--|
-------------------------|--------------------------|-------------------------|--------------------------|--2--1-------------------|--------------------------|--------0--2----0--3--2--|--0--1--2--1--0--1--2--0--|
---------------------------|--------------------------|---------------------------|--------------------------|--2---1--------------------|--------------------------|----------2---1---3---2----|--0--1--2--1--0--1--2--0--|
-------------------------|--------------------------|-------------------------|-------------------------|--------------------------|-------------------------|--2--1-------------------|--------------------------|--2--1-------------------|--------0--2----0--3--2--|--0--1--2--1--0--1--2--0--|--------0--2----0--3--2--|
--------------------------|-------------------------|--------------------------|--------------------------|-------------------------|--------------------------|--------------------------|--2--1-------------------|--------------------------|--0--1--2--1--0--1--2--0--|--------0--2----0--3--2--|--0--1--2--1--0--1--2--0--|
---------------------------|--------------------------|---------------------------|--------------------------|--2---1--------------------|--------------------------|----------2---1---3---2----|--0--1--2--1--0--1--2--0--|
-------------------------|--------------------------|-------------------------|-------------------------|--------------------------|-------------------------|--2--1-------------------|--------------------------|--2--1-------------------|--------0--2----0--3--2--|--0--1--2--1--0--1--2--0--|--------0--2----0--3--2--|
--------------------------|-------------------------|--------------------------|--------------------------|-------------------------|--------------------------|--------------------------|--2--1-------------------|--------------------------|--0--1--2--1--0--1--2--0--|--------0--2----0--3--2--|--0--1--2--1--0--1--2--0--|
-------------------------|--------------------------|-------------------------|-------------------------|--------------------------|-------------------------|--2---1------------------|--------------------------|--2--1-------------------|----------2---1---3---2--|--0--1--2--1--0--1--2--0--|--------0--2----0--3--2--|
--------------------------|-------------------------|--------------------------|--------------------------|-------------------------|--------------------------|--------------------------|--2--1-------------------|--------------------------|--0--1--2--1--0--1--2--0--|--------0--2----0--3--2--|--0--1--2--1--0--1--2--0--|
-------------------------|--------------------------|-------------------------|-------------------------|--------------------------|-------------------------|--2--1-------------------|--------------------------|--2---1------------------|--------0--2----0--3--2--|--0--1--2--1--0--1--2--0--|----------2---1---3---2--|
--------------------------|--------------------------|------------------------|--------------------------|--------------------------|------------------------|--------------------------|--------------------------|-----3--------2----0----|--2--2--2--2--2--2--2--2--|--2--0--0--3--0--0--2--0--|--0-----0--0------------|
-------------------------|--------------------------|--------------------------|-------------------------|--------------------------|--------------------------|-------------------------|--------------------------|--------------------------|--4----4--4--4--0--4--3--|----3--3--0--3-0-0--3--3--|--2--2--2--2--2--2--2--2--|
--------------------------|------------------------|-------------------------|--------------------------|------------------------|-------------------------|--------------------------|-----3--------2----0----|-------------------------|--2--0--0--3--0--0--2--0--|--0-----0--0------------|--4----4--4--4--0--4--3--|
--------------------------|--------------------------|-------------------------|--------------------------|--------------------------|-------------------------|--------------------------|--------------------------|--2--1-------------------|----3--3--0--3-0-0--3--3--|--0--1--2--1--0--1--2--0--|--------0--2----0--3--2--|
--------------------------|-------------------------|--------------------------|--------------------------|-------------------------|--------------------------|--------------------------|--2--1-------------------|--------------------------|--0--1--2--1--0--1--2--0--|--------0--2----0--3--2--|--0--1--2--1--0--1--2--0--|
-------------------------|--------------------------|-------------------------|-------------------------|--------------------------|-------------------------|--2--1-------------------|--------------------------|--2---1------------------|--------0--2----0--3--2--|--0--1--2--1--0--1--2--0--|----------2---1---3---2--|
--------------------------|-------------------------|--------------------------|--------------------------|-------------------------|--------------------------|--------------------------|--2--1-------------------|--------------------------|--0--1--2--1--0--1--2--0--|--------0--2----0--3--2--|--0--1--2--1--0--1--2--0--|
-------------------------|--------------------------|-------------------------|-------------------------|--------------------------|-------------------------|--2--1-------------------|--------------------------|--2--1-------------------|--------0--2----0--3--2--|--0--1--2--1--0--1--2--0--|--------0--2----0--3--2--|
--------------------------|-------------------------|--------------------------|--------------------------|-------------------------|--------------------------|--------------------------|--2---1------------------|--------------------------|--0--1--2--1--0--1--2--0--|----------2---1---3---2--|--2--2--2--2--2--2--2--2--|
--------------------------|------------------------|-------------------------|--------------------------|------------------------|-------------------------|--------------------------|-----3--------2----0----|-------------------------|--2--0--0--3--0--0--2--0--|--0-----0--0------------|--4----4--4--4--0--4--3--|
--------------------------|--------------------------|--------------------------|--------------------------|--------------------------|--------------------------|----3--3--0--3-0-0--3--3--|--2--2--2--2--2--2--2--2--|
--------------------------|------------------------|-------------------------|--------------------------|------------------------|-------------------------|--------------------------|-----3--------2----0----|-------------------------|--2--0--0--3--0--0--2--0--|--0-----0--0------------|--4----4--4--4--0--4--3--|
--------------------------|-------------------------|------------------------|--------------------------|-------------------------|------------------------|--------------------------|-----------0--6--7----4--|-----0--1--2--4--3------|----3--3--0--3-0-0--3--3--|--4--3--4----------------|--4---------------------|
-------------------------|------------------------|-------------------------|-------------------------|------------------------|-------------------------|-----------0--6--7----4--|-----0--1--2--4--3------|-----------0--6--7----4--|--4--3--4----------------|--4---------------------|--4--3--4----------------|
------------------------|-------------------------|------------------------|------------------------|-------------------------|------------------------|-----0--1--2--4--3------|-----------0--6--7----4--|-----0--1--2--4--3------|--4---------------------|--4--3--4----------------|--4---------------------|
------------------|--------------------|------------------------------|------------------|--------------------|--2-----1-----2---------------|------------------|--------------------|------------------------3--2--|------------------|----------3----2----|----0-0---0-0---0-0-1---------|
------------------------------|------------------------------|--2-----1-----2---------------|--2-----1-----2---------------|------------------------------|------------------------3--2--|----0-0---0-0---0-0-1---3--2--|----0-0---0-0---0-0-1---------|
------------------------------|------------------------------|--2-----1-----2---------------|--2-----1-----2---------------|------------------------------|------------------------3--2--|----0-0---0-0---0-0-1---3--2--|----0-0---0-0---0-0-1---------|
------------------------------|-------------------------|--2-----1-----2---------------|-------------------------|------------------------------|--3----3--3--3--3--3-----|----0-0---0-0---0-0-1---3--2--|----------------------2--|
-------------------------|-------------------------|-------2-----2-----2-----|-------------------------|-------------------------|-------------------------|-------------------------|--3----3--3--3--3--3--0--|----0--0--0--0--0--0--0--|----2--2--2--2--2--2--2--|-------------------------|-------------------------|
-------------------------|----------------------|-------------------------|-------------------------|----------------------|-------------------------|--3----3--3--3--3--3-----|----------------------|--3----3--3--3--3--3--0--|----------------------2--|------2--2--2----2----|-------------------------|
-----------------------|-------------------------|--------------------------|-----------------------|-------------------------|--------------------------|----0--0--0--0---------|-------------------------|--------------------------|------------------3----|--0--0--2----0--0--1--0--|--0--0--1--0--0--0--1--0--|
-------------------------|--------------------------|-------------------------|-------------------------|--------------------------|-------------------------|-------------------------|--------------------------|-------------------------|--0--0--2----0--0--1--0--|--0--0--1--0--0--0--1--0--|--0--0--2----0--0--1--0--|
--------------------------|-------------------------|-------------------------|--------------------------|-------------------------|-------------------------|--------------------------|-------------------------|--2---1------------------|--0--0--1--0--0--0--1--0--|--0--0--2----0--0--1--0--|----------2---1---3---2--|
--------------------------|-------------------------|--------------------------|--------------------------|-------------------------|--------------------------|--------------------------|--2--1-------------------|--------------------------|--0--1--2--1--0--1--2--0--|--------0--2----0--3--2--|--0--1--2--1--0--1--2--0--|
-------------------------|--------------------------|-------------------------|-------------------------|--------------------------|-------------------------|--2--1-------------------|--------------------------|--2--1-------------------|--------0--2----0--3--2--|--0--1--2--1--0--1--2--0--|--------0--2----0--3--2--|
--------------------------|---------------------------|--------------------------|---------------------------|--------------------------|--2---1--------------------|--0--1--2--1--0--1--2--0--|----------2---1---3---2----|
--------------------------|-------------------------|--------------------------|--------------------------|-------------------------|--------------------------|--------------------------|--2--1-------------------|--------------------------|--0--1--2--1--0--1--2--0--|--------0--2----0--3--2--|--0--1--2--1--0--1--2--0--|
-------------------------|--------------------------|-------------------------|-------------------------|--------------------------|-------------------------|--2--1-------------------|--------------------------|--2--1-------------------|--------0--2----0--3--2--|--0--1--2--1--0--1--2--0--|--------0--2----0--3--2--|
--------------------------|-------------------------|--------------------------|--------------------------|-------------------------|--------------------------|--------------------------|--2---1------------------|--------------------------|--0--1--2--1--0--1--2--0--|----------2---1---3---2--|--0--1--2--1--0--1--2--0--|
-------------------------|--------------------------|-------------------------|-------------------------|--------------------------|-------------------------|--2--1-------------------|--------------------------|--2--1-------------------|--------0--2----0--3--2--|--0--1--2--1--0--1--2--0--|--------0--2----0--3--2--|
--------------------------|-------------------------|--------------------------|--------------------------|-------------------------|--------------------------|--------------------------|--2--1-------------------|--------------------------|--0--1--2--1--0--1--2--0--|--------0--2----0--3--2--|--0--1--2--1--0--1--2--0--|
-------------------------|--------------------------|--------------------------|-------------------------|--------------------------|--------------------------|--2---1------------------|--------------------------|--------------------------|----------2---1---3---2--|--2--2--2--2--2--2--2--2--|--2--0--0--3--0--0--2--0--|
------------------------|-------------------------|--------------------------|------------------------|-------------------------|--------------------------|-----3--------2----0----|-------------------------|--------------------------|--0-----0--0------------|--4----4--4--4--0--4--3--|----3--3--0--3-0-0--3--3--|
--------------------------|--------------------------|------------------------|--------------------------|--------------------------|------------------------|--------------------------|--------------------------|-----3--------2----0----|--2--2--2--2--2--2--2--2--|--2--0--0--3--0--0--2--0--|--0-----0--0------------|
-------------------------|--------------------------|--------------------------|-------------------------|--------------------------|--------------------------|-------------------------|--------------------------|--------------------------|--4----4--4--4--0--4--3--|----3--3--0--3-0-0--3--3--|--0--1--2--1--0--1--2--0--|
-------------------------|--------------------------|-------------------------|-------------------------|--------------------------|-------------------------|--2--1-------------------|--------------------------|--2--1-------------------|--------0--2----0--3--2--|--0--1--2--1--0--1--2--0--|--------0--2----0--3--2--|
--------------------------|-------------------------|--------------------------|--------------------------|-------------------------|--------------------------|--------------------------|--2--1-------------------|--------------------------|--0--1--2--1--0--1--2--0--|--------0--2----0--3--2--|--0--1--2--1--0--1--2--0--|
---------------------------||---------------------------||--2---1--------------------||----------2---1---3---2----||
Tabbed by Taz Mckell
Please rate this tab:
x1.0