The Acacia Strain - Smoke Ya Later tab

artist: the acacia strain
song: smoke ya later
album: 3750
label: prosthetic

tuning (low to high) A#, F, A#, D#, G, C


guitar 1

|-5--5--5--5--5----8--8--5--5--5----||--6--6--6--6--6-6--6--6--6--6--6-6-||---7--7--7--7--7----7--7--7--7--7--| x4|-----------------------------------||-----------------------------------||-----------------------------------|
guitar 2
|------------------||------------------||-7~-5-10\9-9\7-7~-| x4|-x--x-x--x-x-x-x--||-5~-3-8\-7-7\5-5~-||------------------|
guitar 3
|----------||----------||----------||-8~-5~-0~-||-8~-5~-0~-||-8~-5~-0~-|
all guitars
|----------------------------------||----------------------------------||----------------------------------| x3|-8~-10-11-10-8-0~-----------------||-8~-10-11-10-8-0~-0-000-0-000-000-||-8~-10-11-10-8-0~-0-000-0-000-000-| . ... . ... ...
|------------------------------------------||------------------------------------------||------------------------------------------| x1|-8~-10-11-10-8-0~-------------------------||-8~-10-11-10-8-0~-0-000-0-000-------------||-8~-10-11-10-8-0~-0-000-0-000-12\\slide\\-| . ... . ...
all guitars
|-----------------------------------------------------------------||-----------------------------------------------------------------||-----------------------------------------------------------------| 1st & 3rd|-----------------------------------------------------------------| time|-01210~-0132010~-0121032012101--01210~-0132010~-012103210--------||-01210~-0132010~-0121032012101--01210~-0132010~-012103210-3pinch-| ..... ....... ............. ..... ....... .........
|-------------------------------------------------------------||-------------------------------------------------------------||-------------------------------------------------------------| 2nd time|-------------------------------------------------------------||-01210-0132010-0121032012101--01210-0132010-012103210-3pinch-||-01210-0132010-0121032012101--01210-0132010-012103210--------| ..... ....... ............. ..... ....... .........
|------------------------------------------------------------------||------------------------------------------------------------------||------------------------------------------------------------------| 4th time|------------------------------------------------------------------||-01210-0132010-0121032012101--01210-0132010-012103210-------------||-01210-0132010-0121032012101--01210-0132010-012103210-12\\slide\\-| ..... ....... ............. ..... ....... .........
guitar 1
|-5--5--5--5--5----8--8--5--5--5----||--6--6--6--6--6-6--6--6--6--6--6-6-||---7--7--7--7--7----7--7--7--7--7--| x4|-----------------------------------||-----------------------------------||-----------------------------------|
guitar 2
|------------------||------------------||-7~-5-10\9-9\7-7~-| x4|-x--x-x--x-x-x-x--||-5~-3-8-\7-7\5-5~-||------------------|
guitar 3
|----------------------||----------------------||-10~-9-14\12-12\10-10-| x4|-x---x-x--x--x--x--x--||-8~--7-12\10-10\8--8--||----------------------|
all guitars
|----------------------------------------------||----------------------------------------------||----------------------------------------------| x3 part in parentheses|----------------------------------------------| played by one guitar|-(5-----5-3------------)---5-----5-3----------| on 1st time then others|-(--6-3-----6-5\3-0-3/5)-0---6-3-----5-3-0-00-| come in . . . ..
|-----------------------------------------||-----------------------------------------||-----------------------------------------| x1|-7-----7-5---------------7-----7-5-------||-5-6-3-5-3-6-5\3-0-3/5-0-5-6-3-5-3-5-3-0-||---6-3-----6-5\3-0-3/5-0---6-3-----5-3-0-| . . .
guitar 1
|---------||---------||-8-12-10-| x1|-x-x--x--||-6-10-8--||---------|
guitar 2
|----------||----------||-12-15-14-| x1|-x--x--x--||-10-13-12-||----------|
next guitar 1
|----------------------||----------------------||----------------------| x1|----------------------||-0-0-0--0-0-0-0-0-0-0-||-1-1-1--1-1-1-1-1-1-1-|
afer this I had a hard time figuring out the timing but its all three guitars playing above chord just figure out the timing. I haven't gotten the last riffs figured out yet I will post them as soon as I get it legend .-palm mute pinch-pinch harmonic \-slide down /-slide up ~-let ring enjoy
Tap to rate this tab
 
# A B C D E F G H I J K L M N O P Q R S T U V W X Y Z