The American Analog Set - Kindness Of Strangers tab


Tuning : Normal

Intro - clean :

Playing at the same time!

Guitar 1.

G--3-----3-----3-----3-----------------------|--3-----3-----3-----3-----------------------|--0-----0-----0-----0-----------------------|--0-----0-----0-----0-----------------------|--2-----2-----2-----2-----------------------|--3-----3-----3-----3-----------------------|
Guitar 2.
--------------------------------------------|--------------------------------------------|--------------------------------------------|-----9-----5-----2-----9--------------------|--------------------------------------------|--------------------------------------------|
Intro part 2.
--------------------------------------------|--------------------------------------------|--------------------------------------------|---7/9---5/7--2---7/9---5/7--12/14--9-------| X 4--------------------------------------------|--------------------------------------------|
vers. Play like you think it sounds best:
--------------------------------------------|--------------------------------------------|--------------------------------------------|---(2)-------(2)--------(5)-------(2)-------|--------------------------------------------|--------------------------------------------|
After vers. 1. :
--------------------------------------------|--------------------------------------------|--------------------------------------------|---7/9---5/7--2---7/9---5/7--12/14--9-------| X 2--------------------------------------------|--------------------------------------------|
vers. 2 :
--------------------------------------------|--------------------------------------------|--------------------------------------------|---(2)-------(2)--------(5)-------(2)-------|--------------------------------------------|--------------------------------------------|
Chorus : Guitar 1. Play for times, figure the strumming timing yourself.
G G G G--3-------3---------3------------3-------|--3-------3---------3------------3-------|--0-------0---------0------------0-------|--0-------0---------0------------0-------|--2-------2---------2------------2-------|--3-------3---------3------------3-------|
Guitar 2.
--------------------------------------------|--------------------------------------------|--------------------------------------------|-9-5-2-9^---9-5-2-9^---9-5-2-9^----9-5-2-9^-|--------------------------------------------|--------------------------------------------|
Then play intro: Guitar 2.
--------------------------------------------|--------------------------------------------|--------------------------------------------|---7/9---5/7--2---7/9---5/7--12/14--9-------| X 4--------------------------------------------|--------------------------------------------|
vers 3.
--------------------------------------------|--------------------------------------------|--------------------------------------------|---(2)-------(2)--------(5)-------(2)-------| X 4--------------------------------------------|--------------------------------------------|
Chorus : Guitar 1.
G G G G--3-------3---------3------------3-------|--3-------3---------3------------3-------|--0-------0---------0------------0-------|--0-------0---------0------------0-------| X 4--2-------2---------2------------2-------|--3-------3---------3------------3-------|
Guitar 2.
--------------------------------------------|--------------------------------------------|--------------------------------------------|-9-5-2-9^---9-5-2-9^---9-5-2-9^----9-5-2-9^-| X 4--------------------------------------------|--------------------------------------------|
Outro: Guitar 1.
G G G G G--3-----3-----3-----3-----3-----------------|--3-----3-----3-----3-----3-----------------|--0-----0-----0-----0-----0-----------------|--0-----0-----0-----0-----0-----------------|--2-----2-----2-----2-----2-----------------|--3-----3-----3-----3-----3-----------------|
Guitar 2.
--------------------------------------------|--------------------------------------------|--------------------------------------------|-----9-----5-----2-----9--------------------|--------------------------------------------|--------------------------------------------|
Tab by : Frederik Lyngsø Lyng@mandrilfan.zzn.com This is my first tab, and I think i sounds 100% like the real song...
Tap to rate this tab
 
# A B C D E F G H I J K L M N O P Q R S T U V W X Y Z