The Amity Affliction – I Heart Roberts tab

Song: I Heart Roberts’
Artist: The Amity Affliction
Album: Severed Ties
Year: 2008
Tuning: Drop C#





GUITAR 1





Verse:D#||---------------------|------------------------|--------------------------|A#||---------------------|------------------------|--------------------------|F#||---------------------|------------------------|--------------------------|C#||------------------7--|-----7--7----7--7--7----|--7--7--7----7--7--7--10--|G#||------------------5--|-----5--5----5--5--5----|--5--5--5----5--5--5---8--|C#||------------------5--|-----5--5----5--5--5----|--5--5--5----5--5--5---8--|
------------------------------|-------------------------|------------------------------|-------------------------|------------------------------|-------------------------|-----10--10----10--10--10--5--|-----5--5----5--5--5--7--|------8---8-----8---8---8--3--|-----3--3----3--3--3--5--|------8---8-----8---8---8--3--|-----3--3----3--3--3--5--|
------------------------|--------------------------|------------------------|--------------------------|------------------------|--------------------------|-----7--7----7--7--7----|--7--7--7----7--7--7--10--|-----5--5----5--5--5----|--5--5--5----5--5--5---8--|-----5--5----5--5--5----|--5--5--5----5--5--5---8--|
-----------------------------|---------------------------------|-----------------------------|---------------------------------|-----------------------------|---------------------------------|-----10--10----10--10--10----|--10--10--10--10--10--10--10--7--|------8---8-----8---8---8----|--10--10--10--10--10--10--10--5--|------8---8-----8---8---8----|--10--10--10--10--10--10--10--5--|
------------------------|--------------------------|------------------------|--------------------------|------------------------|--------------------------|-----7--7----7--7--7----|--7--7--7----7--7--7--10--|-----5--5----5--5--5----|--5--5--5----5--5--5---8--|-----5--5----5--5--5----|--5--5--5----5--5--5---8--|
------------------------------|-------------------------|------------------------------|-------------------------|------------------------------|-------------------------|-----10--10----10--10--10--5--|-----5--5----5--5--5--7--|------8---8-----8---8---8--3--|-----3--3----3--3--3--5--|------8---8-----8---8---8--3--|-----3--3----3--3--3--5--|
------------------------|--------------------------|------------------------|--------------------------|------------------------|--------------------------|-----7--7----7--7--7----|--7--7--7----7--7--7--10--|-----5--5----5--5--5----|--5--5--5----5--5--5---8--|-----5--5----5--5--5----|--5--5--5----5--5--5---8--|
-------------------------------|---------------------------------|-------------------------------|---------------------------------|-------------------------------|---------------------------------|-----10--10----10--10--10--10--|------10--10--10--10--10--10-----|------8---8-----8---8---8--10--|------10--10--10--10--10--10-----|------8---8-----8---8---8--10--|------10--10--10--10--10--10-----|
PM PM PM PM PM PM PM PM PM PM PM PM PM PM --------------------------|--------------------------|--------------------------|--------------------------|--------------------------|--------------------------|--8--8--7--7--------8--8--|--7--7--------8--8--7--7--|--------------8-----------|--------8-----------------|--------------------------|--------------------------|
PM PM PM PM PM PM PM PM PM PM PM PM PM PM --------------------------|--------------------------|--------------------------|--------------------------|--------------------------|--------------------------|--8--8--7--7--------8--8--|--7--7--------8--8--7--7--|--------------8-----------|--------8-----------------|--------------------------|--------------------------|
PM PM PM PM PM PM PM PM PM PM PM PM PM PM --------------------------|--------------------------|--------------------------|--------------------------|--------------------------|--------------------------|--8--8--7--7--------8--8--|--7--7--------8--8--7--7--|--------------8-----------|--------8-----------------|--------------------------|--------------------------|
Chorus: PM PM PM PM PM PM PM --------------------------|------------------------------|--------------------------|------------------------------|--------------------------|------------------------------|--8--8--7--7--------8--8--|------------------------------|--------------8-----------|--10--10--10--10--10\------5--|--------------------------|--10--10--10--10--10\------5--|
-------------------------|-------------------------|-------------------------|-------------------------|-------------------------|-------------------------|-------------------------|-------------------------|-------------------------|-------------------------|-------------------------|-------------------------|-----5--5--5--5----5--3--|-----3--3--3--3----3--1--|-----1--1--1--1----1--1--|-----5--5--5--5----5--3--|-----3--3--3--3----3--1--|-----1--1--1--1----1--1--|
-------------------------|-------------------------|-------------------------|-------------------------|-------------------------|-------------------------|-------------------------|-------------------------|-------------------------|-------------------------|-------------------------|-------------------------|-----1--1--1--1----1--5--|-----5--5--5--5----5--3--|-----3--3--3--3----3--1--|-----1--1--1--1----1--5--|-----5--5--5--5----5--3--|-----3--3--3--3----3--1--|
-------------------------|--------------------------|-------------------------|-------------------------|--------------------------|-------------------------|-------------------------|--------------------------|-------------------------|-------------------------|--------------------------|-------------------------|-----1--1--1--1----1--1--|-----1--1--1--3--3--3--5--|-----5--5--5--5----5--3--|-----1--1--1--1----1--1--|-----1--1--1--3--3--3--5--|-----5--5--5--5----5--3--|
-------------------------|-------------------------|-------------------------|-------------------------|-------------------------|-------------------------|-------------------------|-------------------------|-------------------------|-------------------------|-------------------------|-------------------------|-----3--3--3--3----3--1--|-----1--1--1--1----1--1--|-----1--1--1--1----1--5--|-----3--3--3--3----3--1--|-----1--1--1--1----1--1--|-----1--1--1--1----1--5--|
-------------------------|-------------------------|-------------------------|-------------------------|-------------------------|-------------------------|-------------------------|-------------------------|-------------------------|-------------------------|-------------------------|-------------------------|-----5--5--5--5----5--3--|-----3--3--3--3----3--1--|-----1--1--1--1----1--1--|-----5--5--5--5----5--3--|-----3--3--3--3----3--1--|-----1--1--1--1----1--1--|
--------------5-----------|--------------5-----------|--------6--------6-----6--|--------6--------6-----6--|-----3-----3--------3-----|-----3-----3--------3-----|--------------------------|--------------------------|--------------------------|--------------------------|--------------------------|--------------------------|
Verse 2:-------------------------|-------------5------------| -------------------------|-------6--------6-----6---| <<< 3rd guitar repeat -------------------------|----3-----3--------3------| throughout verse-------------------------|--------------------------|-----1--1--1--1-------1--|--------------------------|-----1--1--1--1-------1--|--------------------------|
----------------------------|-------------------|-----|-----|--10h-11---------10------6--|-------------------|-----|-----|----------------------------|-------------------|-----|-----|----------------------------|-------------------|-----|-----|----------------------------|-------------------|-----|-----|----------------------------|-------------------|-----|-----|
----------------------------|-------------------|-----|-----|--10h-11---------10------6--|-------------------|-----|-----|----------------------------|-------------------|-----|-----|----------------------------|-------------------|-----|-----|----------------------------|-------------------|-----|-----|----------------------------|-------------------|-----|-----|
-----------------------------|-------------------|--------------------|--10h-11---------10------13--|-------------------|--15----------------|-----------------------------|-------------------|--------------------|-----------------------------|-------------------|--------------------|-----------------------------|-------------------|--------------------|-----------------------------|-------------------|--------------------|
PM PM PM PM PM --------------------|----------------------------|--------------------------|--10----------------|--10h-11---------10------6--|--------------------------|--------------------|----------------------------|--------------------------|--------------------|----------------------------|--7--8--7-----------------|--------------------|----------------------------|-----------8--7--8--5--8--|--------------------|----------------------------|--------------------------|
PM PM PM PM PM PM PM PM PM PM --------------------------|--------------------------|--------------------------|--------------------------|--------------------------|--------------------------|--7--8--7-----------------|--7--8--7-----------------|-----------8--7--8--5--8--|-----------8--7--8--5--8--|--------------------------|--------------------------|
PM PM PM ----------------------------|------------------------|-----------------------|----------------------------|------------------------|-----------------------|----------------------------|------------------10----|--10-------------------|--7--8--7-----------10--12--|------------------------|--------8----8----7----|-----------8--7--8----------|--5------5---\----------|-----------------------|----------------------------|--5------5---\----------|-----------------------|
---------------------|-----------------------|---------------------|---------------------|-----------------------|---------------------|---------------------|-----------------------|---------------10----|---------------10----|-------12--------8--7--|---------------------|---------------------|-----------------------|---------------------|---------------------|-----------------------|---------------------|
PM PM --------------------------|----------------------|--------------------------|----------------------|--10--------------10--12--|---~------------------|--------8----8------------|----------------8--8--|--------------------------|----------------------|--------------------------|----------------------|
PM PM PM PM PM PM PM PM ------------------------------|---------------------|-----------------------|------------------------------|---------------------|-----------------------|------------------------------|---------------10----|--10-------------------|--10--10--12--12--8--8--7--7--|---------------------|--------8----8----7----|------------------------------|---------------------|-----------------------|------------------------------|---------------------|-----------------------|
---------------------|------------------------|---------------------|---------------------|------------------------|---------------------|---------------------|------------------------|---------------10----|---------------10----|--------12--------8--7--|---------------------|---------------------|------------------------|---------------------|---------------------|------------------------|---------------------|
PM PM --------------------------|----------------------|--------------------------|----------------------|--10--------------10--12--|---~------------------|--------8----8------------|----------------8--8--|--------------------------|----------------------|--------------------------|----------------------|
Pre Chorus: PM PM PM PM PM PM PM PM ------------------------------|-------------------|--------------------|------------------------------|-------------------|--------------------|------------------------------|-------------------|--------------------|--10--10--12--12--8--8--7--7--|--7----------------|---~----------------|------------------------------|-------------------|--------------------|------------------------------|-------------------|--------------------|
Chorus:---------------------|---------------------|-------------------------|---------------------|---------------------|-------------------------|---------------------|---------------------|-------------------------|--7--8---------------|--7------------------|-------------------------|---------------------|------------------5--|-----5--5--5--5----5--3--|---------------------|------------------5--|-----5--5--5--5----5--3--|
-------------------------|-------------------------|-------------------------|-------------------------|-------------------------|-------------------------|-------------------------|-------------------------|-------------------------|-------------------------|-------------------------|-------------------------|-----3--3--3--3----3--1--|-----1--1--1--1----1--1--|-----1--1--1--1----1--5--|-----3--3--3--3----3--1--|-----1--1--1--1----1--1--|-----1--1--1--1----1--5--|
-------------------------|-------------------------|-------------------------|-------------------------|-------------------------|-------------------------|-------------------------|-------------------------|-------------------------|-------------------------|-------------------------|-------------------------|-----5--5--5--5----5--3--|-----3--3--3--3----3--1--|-----1--1--1--1----1--1--|-----5--5--5--5----5--3--|-----3--3--3--3----3--1--|-----1--1--1--1----1--1--|
--------------------------|-------------------------|-------------------------|--------------------------|-------------------------|-------------------------|--------------------------|-------------------------|-------------------------|--------------------------|-------------------------|-------------------------|-----1--1--1--3--3--3--5--|-----5--5--5--5----5--3--|-----3--3--3--3----3--1--|-----1--1--1--3--3--3--5--|-----5--5--5--5----5--3--|-----3--3--3--3----3--1--|
-------------------------|-------------------------|-------------------------|-------------------------|-------------------------|-------------------------|-------------------------|-------------------------|-------------------------|-------------------------|-------------------------|-------------------------|-----1--1--1--1----1--1--|-----1--1--1--1----1--5--|-----5--5--5--5----5--3--|-----1--1--1--1----1--1--|-----1--1--1--1----1--5--|-----5--5--5--5----5--3--|
-------------------------|-------------------------|-------------------------|-------------------------|-------------------------|----------------------3--|-------------------------|-------------------------|----------------------3--|-------------------------|-------------------------|-------------------------|-----3--3--3--3----3--1--|-----1--1--1--1----1--1--|-----1--1--1--1----1-----|-----3--3--3--3----3--1--|-----1--1--1--1----1--1--|-----1--1--1--1----1-----|
Bridge:--------------------------|--------------------------|-----3--3-----3-----3-----|--3-----3-----3--3-----3--|-----3--3-----3-----3-----|--3-----3-----3--3-----3--|--------------------------|--------------------------|--------------------------|--------------------------|--------------------------|--------------------------|
--------------------------|----------------------------|-----1--1-----1-----1-----|--3-----3-----3---3---3--3--|-----3--3-----3-----3-----|--2-----2-----2h--3p--2--3--|--------------------------|----------------------------|--------------------------|----------------------------|--------------------------|----------------------------|
--------------------------|--------------------------|-----3--3-----3-----3-----|--3-----3-----3--3-----3--|-----3--3-----3-----3-----|--3-----3-----3--3-----3--|--------------------------|--------------------------|--------------------------|--------------------------|--------------------------|--------------------------|
--------------------------|--------------------------|-----6--6-----6-----6-----|--8-----8-----8--8--8--8--|-----7--7-----7-----7-----|--7-----7-----7--7--7--7--|--------------------------|--------------------------|--------------------------|--------------------------|--------------------------|--------------------------|
--------------------------|--------------------------|-----3--3-----3-----3-----|--3-----3-----3--3-----3--|-----3--3-----3-----3-----|--3-----3-----3--3-----3--|--------------------------|--------------------------|--------------------------|--------------------------|--------------------------|--------------------------|
--------------------------|----------------------------|-----1--1-----1-----1-----|--3-----3-----3---3---3--3--|-----3--3-----3-----3-----|--2-----2-----2h--3p--2--3--|--------------------------|----------------------------|--------------------------|----------------------------|--------------------------|----------------------------|
--------------------------|--------------------------|-----3--3-----3-----3-----|--3-----3-----3--3-----3--|-----3--3-----3-----3-----|--3-----3-----3--3-----3--|--------------------------|--------------------------|--------------------------|--------------------------|--------------------------|--------------------------|
--------------------------|--------------------------|-----6--6-----6-----6-----|--8-----8-----8--8--8--8--|-----7--7-----7-----7-----|--7-----7-----7--7--7--7--|--------------------------|--------------------------|--------------------------|--------------------------|--------------------------|--------------------------|
--------------------------|--------------------------|-----3--3-----3-----3-----|--3-----3-----3--3-----3--|-----3--3-----3-----3-----|--3-----3-----3--3-----3--|--------------------------|--------------------------|--------------------------|--------------------------|--------------------------|--------------------------|
--------------------------|----------------------------|-----1--1-----1-----1-----|--3-----3-----3---3---3--3--|-----3--3-----3-----3-----|--2-----2-----2h--3p--2--3--|--------------------------|----------------------------|--------------------------|----------------------------|--------------------------|----------------------------|
--------------------------|--------------------------|-----3--3-----3-----3-----|--3-----3-----3--3-----3--|-----3--3-----3-----3-----|--3-----3-----3--3-----3--|--------------------------|--------------------------|--------------------------|--------------------------|--------------------------|--------------------------|
--------------------------|--------------------------|-----6--6-----6-----6-----|--8-----8-----8--8--8--8--|-----7--7-----7-----7-----|--7-----7-----7--7--7--7--|--------------------------|--------------------------|--------------------------|--------------------------|--------------------------|--------------------------|
--------------------------------|--------------------------------|--------------------------------|--------------------------------|--------------------------------|--------------------------------|--10--10--10--10-----10--10-----|--10--10-----10--10-----10--10--|---8---8---8---8------8---8-----|---8---8------8---8------8---8--|---8---8---8---8------8---8-----|---8---8------8---8------8---8--|
--------------------------------|-----------------------------|--------------------------------|-----------------------------|--------------------------------|-----------------------------|--10--12--12--12-----12--12-----|--12--12-----12--12---\------|---8--10--10--10-----10--10-----|--10--10-----10--10---\------|---8--10--10--10-----10--10-----|--10--10-----10--10---\------|
Breakdown: PM PM PM PM PM PM PM PM PM PM PM PM -------------------------------------------|-------------------------------------------|-------------------------------------------|-------------------------------------------|--5--5--5--5--5--5--5--5--5----5--5--5--5--|--5--5--5--5--5--5--5--5--5----5--5--5--5--|
PM PM PM PM PM PM PM PM ------------------------------------|------------------------------------|------------------------------------|------------------------------------|--5--5--5--5--5----5--5--5--5--5----|--5--5--5--5--5----5--5--5--5--5----|
PM PM PM PM PM PM PM PM PM PM PM PM -------------------------------------------|-------------------------------------------|-------------------------------------------|-------------------------------------------|--5--5--5--5--5--5--5--5--5----5--5--5--5--|--5--5--5--5--5--5--5--5--5----5--5--5--5--|
PM PM PM PM PM PM PM PM ------------------------------------|---------------------------------|------------------------------------|---------------------------------|------------------------------------|---------------------------------|------------------------------------|--10--10--10--10--10-----10--10--|--5--5--5--5--5----5--5--5--5--5----|---8---8---8---8---8------8---8--|--5--5--5--5--5----5--5--5--5--5----|---8---8---8---8---8------8---8--|
--------------------------------|---------------------------------|--------------------------------|---------------------------------|--------------------------------|---------------------------------|-----10--10-----10--10--10--10--|--10--12--12--12--12-----12--12--|------8---8------8---8---8---8--|---8--10--10--10--10-----10--10--|------8---8------8---8---8---8--|---8--10--10--10--10-----10--10--|
PM PM PM PM PM PM PM PM PM PM PM PM ----------------------------|-------------------------------------------|----------------------------|-------------------------------------------|----------------------------|-------------------------------------------|--12----12----12--12--------|-------------------------------------------|--10----10----10--10--------|--5--5--5--5--5--5--5--5--5----5--5--5--5--|--10----10----10--10--------|--5--5--5--5--5--5--5--5--5----5--5--5--5--|
PM PM PM PM PM PM PM PM ------------------------------------|------------------------------------|------------------------------------|------------------------------------|--5--5--5--5--5----5--5--5--5--5----|--5--5--5--5--5----5--5--5--5--5----|
PM PM PM PM PM PM PM PM PM PM PM PM -------------------------------------------|-------------------------------------------|-------------------------------------------|-------------------------------------------|--5--5--5--5--5--5--5--5--5----5--5--5--5--|--5--5--5--5--5--5--5--5--5----5--5--5--5--|
Chorus: PM PM PM PM PM PM PM PM -------------------------------------|--------------------------|-------------------------------------|--------------------------|-------------------------------------|--------------------------|-------------------------------------|--------------------------|--5--5--5--5--5----5--5--5--5--5\----|--5--5--5--5--5--5--5--5--|--5--5--5--5--5----5--5--5--5--5\----|--5--5--5--5--5--5--5--5--|
--------------------------|--------------------------|--------------------------|--------------------------|--------------------------|--------------------------|--------------------------|--------------------------|--5--5--5--5--5--5--5--5--|--3--3--3--3--3--3--3--3--|--5--5--5--5--5--5--5--5--|--3--3--3--3--3--3--3--3--|
--------------------------|--------------------------|--------------------------|--------------------------|--------------------------|--------------------------|--------------------------|--------------------------|--3--3--3--3--3--3--3--3--|--1--1--1--1--1--1--1--1--|--3--3--3--3--3--3--3--3--|--1--1--1--1--1--1--1--1--|
--------------------------|--------------------------|--------------------------|--------------------------|--------------------------|--------------------------|--------------------------|--------------------------|--1--1--1--1--1--1--1--1--|--1--1--1--1--1--1--1--1--|--1--1--1--1--1--1--1--1--|--1--1--1--1--1--1--1--1--|
--------------------------|--------------------------|--------------------------|--------------------------|--------------------------|--------------------------|--------------------------|--------------------------|--1--1--1--1--1--1--1--1--|--8--8--8--8--8--8--8--8--|--1--1--1--1--1--1--1--1--|--8--8--8--8--8--8--8--8--|
--------------------------|----------------------------------|--------------------------|----------------------------------|--------------------------|----------------------------------|--------------------------|----------------------------------|--8--8--8--8--8--8--8--8--|--10--10--10--10--10--10--10--10--|--8--8--8--8--8--8--8--8--|--10--10--10--10--10--10--10--10--|
Outro:----------------------------------|--------------------------|----------------------------------|--------------------------|----------------------------------|--------------------------|----------------------------------|--------------------------|--10--10--10--10--10--10--10--10--|--5--5--5--5-----5--5--5--|--10--10--10--10--10--10--10--10--|--5--5--5--5-----5--5--5--|
--------------------------|--------------------------|----------------------||--------------------------|--------------------------|----------------------||--------------------------|--------------------------|----------------------||--------------------------|--------------------------|----------------------||--5--5-----5--5--5--5--5--|--5--5--5--5-----5--5--5--|--5-----\-------------||--5--5-----5--5--5--5--5--|--5--5--5--5-----5--5--5--|--5-----\-------------||
GUITAR 2
Verse:D#||---------------------|------------------------|--------------------------|A#||---------------------|------------------------|--------------------------|F#||---------------------|------------------------|--------------------------|C#||------------------7--|-----7--7----7--7--7----|--7--7--7----7--7--7--10--|G#||------------------5--|-----5--5----5--5--5----|--5--5--5----5--5--5---8--|C#||------------------5--|-----5--5----5--5--5----|--5--5--5----5--5--5---8--|
------------------------------|-------------------------|------------------------------|-------------------------|------------------------------|-------------------------|-----10--10----10--10--10--5--|-----5--5----5--5--5--7--|------8---8-----8---8---8--3--|-----3--3----3--3--3--5--|------8---8-----8---8---8--3--|-----3--3----3--3--3--5--|
------------------------|--------------------------|------------------------|--------------------------|------------------------|--------------------------|-----7--7----7--7--7----|--7--7--7----7--7--7--10--|-----5--5----5--5--5----|--5--5--5----5--5--5---8--|-----5--5----5--5--5----|--5--5--5----5--5--5---8--|
-----------------------------|---------------------------------|-----------------------------|---------------------------------|-----------------------------|---------------------------------|-----10--10----10--10--10----|--10--10--10--10--10--10--10--7--|------8---8-----8---8---8----|--10--10--10--10--10--10--10--5--|------8---8-----8---8---8----|--10--10--10--10--10--10--10--5--|
------------------------|--------------------------|------------------------|--------------------------|------------------------|--------------------------|-----7--7----7--7--7----|--7--7--7----7--7--7--10--|-----5--5----5--5--5----|--5--5--5----5--5--5---8--|-----5--5----5--5--5----|--5--5--5----5--5--5---8--|
------------------------------|-------------------------|------------------------------|-------------------------|------------------------------|-------------------------|-----10--10----10--10--10--5--|-----5--5----5--5--5--7--|------8---8-----8---8---8--3--|-----3--3----3--3--3--5--|------8---8-----8---8---8--3--|-----3--3----3--3--3--5--|
------------------------|--------------------------|------------------------|--------------------------|------------------------|--------------------------|-----7--7----7--7--7----|--7--7--7----7--7--7--10--|-----5--5----5--5--5----|--5--5--5----5--5--5---8--|-----5--5----5--5--5----|--5--5--5----5--5--5---8--|
-------------------------------|---------------------------------|-------------------------------|---------------------------------|-------------------------------|---------------------------------|-----10--10----10--10--10--10--|------10--10--10--10--10--10-----|------8---8-----8---8---8--10--|------10--10--10--10--10--10--5--|------8---8-----8---8---8--10--|------10--10--10--10--10--10--5--|
PM PM PM PM PM PM PM PM PM PM PM PM PM PM PM PM PM PM PM --------------------------|--------------------------|-------------------------|--------------------------|--------------------------|-------------------------|--------------------------|--------------------------|-------------------------|--------------------------|--------------------------|-------------------------|-----5--5--5--5-----5--5--|--5--5--5-----5--5--5--5--|--8--8--8--8--8----8--8--|-----5--5--5--5-----5--5--|--5--5--5-----5--5--5--5--|--8--8--8--8--8----8--8--|
PM PM PM PM PM PM PM PM PM PM PM PM PM PM PM PM PM PM ------------------------|--------------------------|--------------------------|------------------------|--------------------------|--------------------------|------------------------|--------------------------|--------------------------|------------------------|--------------------------|--------------------------|--3--3--3----3--3--3----|--5--5--5--5--5-----5--5--|--5--5--5-----5--5--5--5--|--3--3--3----3--3--3----|--5--5--5--5--5-----5--5--|--5--5--5-----5--5--5--5--|
PM PM PM PM PM PM Chorus: -------------------------|------------------------------|-------------------------|------------------------------|-------------------------|------------------------------|-------------------------|------------------------------|--8--8--8--8--8----8--8--|--10--10--10--10--10\------5--|--8--8--8--8--8----8--8--|--10--10--10--10--10\------5--|
-------------------------|-------------------------|-------------------------|-------------------------|-------------------------|-------------------------|-------------------------|-------------------------|-------------------------|-------------------------|-------------------------|-------------------------|-----5--5--5--5----5--3--|-----3--3--3--3----3--1--|-----1--1--1--1----1--1--|-----5--5--5--5----5--3--|-----3--3--3--3----3--1--|-----1--1--1--1----1--1--|
-------------------------|-------------------------|-------------------------|-------------------------|-------------------------|-------------------------|-------------------------|-------------------------|-------------------------|-------------------------|-------------------------|-------------------------|-----1--1--1--1----1--5--|-----5--5--5--5----5--3--|-----3--3--3--3----3--1--|-----1--1--1--1----1--5--|-----5--5--5--5----5--3--|-----3--3--3--3----3--1--|
-------------------------|--------------------------|-------------------------|-------------------------|--------------------------|-------------------------|-------------------------|--------------------------|-------------------------|-------------------------|--------------------------|-------------------------|-----1--1--1--1----1--1--|-----1--1--1--3--3--3--5--|-----5--5--5--5----5--3--|-----1--1--1--1----1--1--|-----1--1--1--3--3--3--5--|-----5--5--5--5----5--3--|
-------------------------|-------------------------|-------------------------|-------------------------|-------------------------|-------------------------|-------------------------|-------------------------|-------------------------|-------------------------|-------------------------|-------------------------|-----3--3--3--3----3--1--|-----1--1--1--1----1--1--|-----1--1--1--1----1--5--|-----3--3--3--3----3--1--|-----1--1--1--1----1--1--|-----1--1--1--1----1--5--|
-------------------------|-------------------------|-------------------------|-------------------------|-------------------------|-------------------------|-------------------------|-------------------------|-------------------------|-------------------------|-------------------------|-------------------------|-----5--5--5--5----5--3--|-----3--3--3--3----3--1--|-----1--1--1--1----1--1--|-----5--5--5--5----5--3--|-----3--3--3--3----3--1--|-----1--1--1--1----1--1--|
Verse 2: PM PM PM PM PM PM PM -------------------------|-------------------------------|-------------------------|-------------------------------|-------------------------|-------------------------------|-------------------------|-------------------------------|-----1--1--1--1-------1--|-----1--1----1--1--1--1--1-----|-----1--1--1--1-------1--|-----1--1----1--1--1--1--1-----|
PM PM PM PM PM PM PM PM PM PM PM PM PM -----------------------|-------------------------------|-----------------------|-----------------------|-------------------------------|-----------------------|-----------------------|-------------------------------|-----------------------|-----------------------|-------------------------------|-----------------------|-----------1--1--1--1--|--L--1--1----1--1--1--1--1--L--|-----------3--3--3--5--|-----------1--1--1--1--|--L--1--1----1--1--1--1--1--L--|-----------3--3--3--5--|
PM PM PM PM PM PM PM PM PM PM -------------------------------|-----------------------|-------------------------------|-----------------------|-------------------------------|-----------------------|-------------------------------|-----------------------|-----5--5----5--5--5--5--5-----|-----------5--5--5--5--|-----5--5----5--5--5--5--5-----|-----------5--5--5--5--|
PM PM PM PM PM PM PM PM PM PM -------------------------------|-----------------------|-------------------------------|-----------------------|-------------------------------|-----------------------|-------------------------------|-----------------------|-----5--5----5--5--5--5--5-----|-----------3--3--3--1--|-----5--5----5--5--5--5--5-----|-----------3--3--3--1--|
PM PM PM PM PM PM PM PM PM PM -------------------------------|-----------------------|-------------------------------|-----------------------|-------------------------------|-----------------------|-------------------------------|-----------------------|-----1--1----1--1--1--1--1-----|-----------1--1--1--1--|-----1--1----1--1--1--1--1-----|-----------1--1--1--1--|
PM PM PM PM PM PM PM PM PM PM -------------------------------|-----------------------|-------------------------------|-----------------------|-------------------------------|-----------------------|-------------------------------|-----------------------|-----1--1----1--1--1--1--1-----|-----------3--3--3--5--|-----1--1----1--1--1--1--1-----|-----------3--3--3--5--|
PM PM PM PM PM PM PM PM PM PM -------------------------------|-----------------------|-------------------------------|-----------------------|-------------------------------|-----------------------|-------------------------------|-----------------------|-----5--5----5--5--5--5--5-----|-----------5--5--5--5--|-----5--5----5--5--5--5--5-----|-----------5--5--5--5--|
PM PM PM PM PM PM PM PM PM PM -------------------------------|-----------------------|-------------------|-------------------------------|-----------------------|-------------------|-------------------------------|-----------------------|-------------------|-------------------------------|-----------------------|-------------------|-----5--5----5--5--5--5--5-----|-----------3--3--3--1--|-------------------|-----5--5----5--5--5--5--5-----|-----------3--3--3--1--|-------------------|
-------------------|-------------------|-------------------|-------------------|-------------------|-------------------|-------------------|-------------------|-------------------|-------------------|-------------------|-------------------|-------------------|--0----------------|--3----------------|-------------------|--0----------------|--3----------------|
-----------------------|-------------------|----------------------|-----------------------|-------------------|----------------------|-----------------------|-------------------|----------------------|-----------------------|-------------------|----------------------|--5------5---\---------|-------------------|--1----1--1------1----|--5------5---\---------|-------------------|--1----1--1------1----|
PM PM PM PM ----------------------|----------------------|------------------------|----------------------|----------------------|------------------------|----------------------|----------------------|------------------------|----------------------|----------------------|------------------------|-------1----1----1----|--5----5--5------5----|--5--5--5----5--5--5----|-------1----1----1----|--5----5--5------5----|--5--5--5----5--5--5----|
PM PM PM PM ----------------------|------------------------|----------------------|----------------------|------------------------|----------------------|----------------------|------------------------|----------------------|----------------------|------------------------|----------------------|--1----1--1------1----|--1--1--1----1--1--1----|--5----5--5------5----|--1----1--1------1----|--1--1--1----1--1--1----|--5----5--5------5----|
PM PM PM PM PM PM PM PM ------------------------|----------------------|------------------------|------------------------|----------------------|------------------------|------------------------|----------------------|------------------------|------------------------|----------------------|------------------------|--5--5--5----5--5--5----|--1----1--1------1----|--1--1--1----1--1--1----|--5--5--5----5--5--5----|--1----1--1------1----|--1--1--1----1--1--1----|
PM PM PM PM ----------------------|------------------------|----------------------|----------------------|------------------------|----------------------|----------------------|------------------------|----------------------|----------------------|------------------------|----------------------|--5----5--5------5----|--5--5--5----5--5--5----|--1----1--1------1----|--5----5--5------5----|--5--5--5----5--5--5----|--1----1--1------1----|
PM PM PM PM Pre Chorus: ------------------------|-------------------|-------------------|------------------------|-------------------|-------------------|------------------------|-------------------|-------------------|------------------------|-------------------|-------------------|--1--1--1----1--1--1----|--1----------------|-------------------|--1--1--1----1--1--1----|--1----------------|-------------------|
Pre Chorus:-------------------|------------------------|-------------------------|-------------------|------------------------|-------------------------|-------------------|------------------------|-------------------------|-------------------|------------------------|-------------------------|--3----------------|------------12\------5--|-----5--5--5--5----5--3--|--3----------------|------------12\------5--|-----5--5--5--5----5--3--|
-------------------------|-------------------------|-------------------------|-------------------------|-------------------------|-------------------------|-------------------------|-------------------------|-------------------------|-------------------------|-------------------------|-------------------------|-----3--3--3--3----3--1--|-----1--1--1--1----1--1--|-----1--1--1--1----1--5--|-----3--3--3--3----3--1--|-----1--1--1--1----1--1--|-----1--1--1--1----1--5--|
-------------------------|-------------------------|-------------------------|-------------------------|-------------------------|-------------------------|-------------------------|-------------------------|-------------------------|-------------------------|-------------------------|-------------------------|-----5--5--5--5----5--3--|-----3--3--3--3----3--1--|-----1--1--1--1----1--1--|-----5--5--5--5----5--3--|-----3--3--3--3----3--1--|-----1--1--1--1----1--1--|
--------------------------|-------------------------|-------------------------|--------------------------|-------------------------|-------------------------|--------------------------|-------------------------|-------------------------|--------------------------|-------------------------|-------------------------|-----1--1--1--3--3--3--5--|-----5--5--5--5----5--3--|-----3--3--3--3----3--1--|-----1--1--1--3--3--3--5--|-----5--5--5--5----5--3--|-----3--3--3--3----3--1--|
-------------------------|-------------------------|-------------------------|-------------------------|-------------------------|-------------------------|-------------------------|-------------------------|-------------------------|-------------------------|-------------------------|-------------------------|-----1--1--1--1----1--1--|-----1--1--1--1----1--5--|-----5--5--5--5----5--3--|-----1--1--1--1----1--1--|-----1--1--1--1----1--5--|-----5--5--5--5----5--3--|
-------------------------|-------------------------|-------------------------|-------------------------|-------------------------|-------------------------|-------------------------|-------------------------|-------------------------|-------------------------|-------------------------|-------------------------|-----3--3--3--3----3--1--|-----1--1--1--1----1--1--|-----1--1--1--1----1--1--|-----3--3--3--3----3--1--|-----1--1--1--1----1--1--|-----1--1--1--1----1--1--|
Bridge: -------------------|-------------------|-----|-----|-----|-----|-----|-----|-------------------|-------------------|-----|-----|-----|-----|-----|-----|-------------------|-------------------|-----|-----|-----|-----|-----|-----|-------------------|-------------------|-----|-----|-----|-----|-----|-----|-------------------|-------------------|-----|-----|-----|-----|-----|-----|-------------------|-------------------|-----|-----|-----|-----|-----|-----|
-----|-----|-----|--------------------------------|-----|-----|-----|--------------------------------|-----|-----|-----|--------------------------------|-----|-----|-----|--10--10--10--10-----10--10-----|-----|-----|-----|---8---8---8---8------8---8-----|-----|-----|-----|---8---8---8---8------8---8-----|
--------------------------------|--------------------------------|--------------------------------|--------------------------------|--------------------------------|--------------------------------|--10--10-----10--10-----10--10--|--10--12--12--12-----12--12-----|---8---8------8---8------8---8--|---8--10--10--10-----10--10-----|---8---8------8---8------8---8--|---8--10--10--10-----10--10-----|
Breakdown: PM PM PM PM PM PM PM PM PM PM PM PM -----------------------------|-------------------------------------------|-----------------------------|-------------------------------------------|-----------------------------|-------------------------------------------|--12--12-----12--12---\------|-------------------------------------------|--10--10-----10--10---\------|--5--5--5--5--5--5--5--5--5----5--5--5--5--|--10--10-----10--10---\------|--5--5--5--5--5--5--5--5--5----5--5--5--5--|
PM PM PM PM PM PM PM PM ------------------------------------|------------------------------------|------------------------------------|------------------------------------|--5--5--5--5--5----5--5--5--5--5----|--5--5--5--5--5----5--5--5--5--5----|
PM PM PM PM PM PM PM PM PM PM PM PM -------------------------------------------|-------------------------------------------|-------------------------------------------|-------------------------------------------|--5--5--5--5--5--5--5--5--5----5--5--5--5--|--5--5--5--5--5--5--5--5--5----5--5--5--5--|
PM PM PM PM PM PM PM PM ------------------------------------|---------------------------------|------------------------------------|---------------------------------|------------------------------------|---------------------------------|------------------------------------|--10--10--10--10--10-----10--10--|--5--5--5--5--5----5--5--5--5--5----|---8---8---8---8---8------8---8--|--5--5--5--5--5----5--5--5--5--5----|---8---8---8---8---8------8---8--|
--------------------------------|---------------------------------|--------------------------------|---------------------------------|--------------------------------|---------------------------------|-----10--10-----10--10--10--10--|--10--12--12--12--12-----12--12--|------8---8------8---8---8---8--|---8--10--10--10--10-----10--10--|------8---8------8---8---8---8--|---8--10--10--10--10-----10--10--|
PM PM PM PM PM PM PM PM PM PM PM PM ----------------------------|-------------------------------------------|----------------------------|-------------------------------------------|----------------------------|-------------------------------------------|--12----12----12--12--------|-------------------------------------------|--10----10----10--10--------|--5--5--5--5--5--5--5--5--5----5--5--5--5--|--10----10----10--10--------|--5--5--5--5--5--5--5--5--5----5--5--5--5--|
PM PM PM PM PM PM PM PM ------------------------------------|------------------------------------|------------------------------------|------------------------------------|--5--5--5--5--5----5--5--5--5--5----|--5--5--5--5--5----5--5--5--5--5----|
PM PM PM PM PM PM PM PM PM PM PM PM -------------------------------------------|-------------------------------------------|-------------------------------------------|-------------------------------------------|--5--5--5--5--5--5--5--5--5----5--5--5--5--|--5--5--5--5--5--5--5--5--5----5--5--5--5--|
Chorus: PM PM PM PM PM PM PM PM -------------------------------------|--------------------------|-------------------------------------|--------------------------|-------------------------------------|--------------------------|-------------------------------------|--------------------------|--5--5--5--5--5----5--5--5--5--5\----|--5--5--5--5--5--5--5--5--|--5--5--5--5--5----5--5--5--5--5\----|--5--5--5--5--5--5--5--5--|
--------------------------|--------------------------|--------------------------|--------------------------|--------------------------|--------------------------|--------------------------|--------------------------|--5--5--5--5--5--5--5--5--|--3--3--3--3--3--3--3--3--|--5--5--5--5--5--5--5--5--|--3--3--3--3--3--3--3--3--|
--------------------------|--------------------------|--------------------------|--------------------------|--------------------------|--------------------------|--------------------------|--------------------------|--3--3--3--3--3--3--3--3--|--1--1--1--1--1--1--1--1--|--3--3--3--3--3--3--3--3--|--1--1--1--1--1--1--1--1--|
--------------------------|--------------------------|--------------------------|--------------------------|--------------------------|--------------------------|--------------------------|--------------------------|--1--1--1--1--1--1--1--1--|--1--1--1--1--1--1--1--1--|--1--1--1--1--1--1--1--1--|--1--1--1--1--1--1--1--1--|
--------------------------|--------------------------|--------------------------|--------------------------|--------------------------|--------------------------|--------------------------|--------------------------|--1--1--1--1--1--1--1--1--|--8--8--8--8--8--8--8--8--|--1--1--1--1--1--1--1--1--|--8--8--8--8--8--8--8--8--|
--------------------------|----------------------------------|--------------------------|----------------------------------|--------------------------|----------------------------------|--------------------------|----------------------------------|--8--8--8--8--8--8--8--8--|--10--10--10--10--10--10--10--10--|--8--8--8--8--8--8--8--8--|--10--10--10--10--10--10--10--10--|
Outro:----------------------------------|--------------------------|----------------------------------|--------------------------|----------------------------------|--------------------------|----------------------------------|--------------------------|--10--10--10--10--10--10--10--10--|--5--5--5--5-----5--5--5--|--10--10--10--10--10--10--10--10--|--5--5--5--5-----5--5--5--|
--------------------------|--------------------------|----------------------||--------------------------|--------------------------|----------------------||--------------------------|--------------------------|----------------------||--------------------------|--------------------------|----------------------||--5--5-----5--5--5--5--5--|--5--5--5--5-----5--5--5--|--5-----\-------------||--5--5-----5--5--5--5--5--|--5--5--5--5-----5--5--5--|--5-----\-------------||
Tablature Legend ---------------- PM – Palm Mute / - Slide L - tied note x - dead note g - grace note (n) - ghost note > - accentuded note h - hammer on p - pull off b - bend br - bendRelease pb - preBend
Please rate this tab:
x1.0