The Automatic – On The Camping Trail tab

Tuning:
F
C
G#
Eb
Bb
Eb

Verse

\----------------------------------------------------------------|\----------------------------------------------------------------|\-----------------5--3------------------0------5--3--------------| X5\----3-2-3-0-3-2--5--3------------3-2-3---3-2--5--3--------------|\-----------------3--1-------------------------3--1--------------|\0------------------------------0--------------------------------|
Chorus
\----------------------------------------------------------------|\----------------------------------------------------------------|\------3-------3-------3-------3---------------------------------|\--------------------------------------5-------5-------5-------5-|\1-1-----1-1-----1-1-----1-1-------------------------------------|\--------------------------------5-5-----5-5-----5-5-----5-5-----|
\----------------------------------------------------------------|\----------------------------------------------------------------|\------3-------3-------3-------3-------7-------7-------7-------7-|\----------------------------------------------------------------|\1-1-----1-1-----1-1-----1-1-----5-5-----5-5-----5-5-----5-5-----|\----------------------------------------------------------------|
\----------------------------------------------------------------|\----------------------------------------------------------------|\3-3---3-3-3---3-3-3---3-3-3---3---------------------------------|\3-3---3-3-3---3-3-3---3-3-3---3-5-5---5-5-5---5-5-5---5-5-5---5-|\1-1---1-1-1---1-1-1---1-1-1---1-5-5---5-5-5---5-5-5---5-5-5---5-|\--------------------------------5-5---5-5-5---5-5-5---5-5-5---5-|
\----------------------------------------------------------------|\----------------------------------------------------------------|\3-3---3-3-3---3-3-3---3-3-3---3-7-7---7-7-7---7-7-7---7-7-7---7-|\3-3---3-3-3---3-3-3---3-3-3---3-7-7---7-7-7---7-7-7---7-7-7---7-|\1-1---1-1-1---1-1-1---1-1-1---1-5-5---5-5-5---5-5-5---5-5-5---5-|\----------------------------------------------------------------|
Bridge
\----------------------------------------------------------------|\----------------------------------------------------------------|\----------------------------------------------------------------|\5---------------5---------------3---------------3---------------|\5---------------5---------------3---------------3---------------|\5---------------5---------------3---------------3---------------|
\----------------------------------------------------------------|\----------------------------------------------------------------|\----------------------------------------------------------------|\5---5---5---5---5---5---5---5---3---3---3---3---3---3---3---3---|\5---5---5---5---5---5---5---5---3---3---3---3---3---3---3---3---|\5---5---5---5---5---5---5---5---3---3---3---3---3---3---3---3---|
\3-3-----3-3-----3-3-----3-3-----5-5-----5-5-----5-5-----5-5-----|\----------------------------------------------------------------|\----------------------------------------------------------------|\----------------------------------------------------------------|\----------------------------------------------------------------|\----------------------------------------------------------------|
\6-6-----6-6-----6-6-----6-6-----8-8-----8-8-----8-8-----8-8-----|\----------------------------------------------------------------|\----------------------------------------------------------------|\----------------------------------------------------------------|\----------------------------------------------------------------|\----------------------------------------------------------------|
The the Verse again then Finally Outro
\----------------------------------------------------------------|\----------------------------------------------------------------|\----------------------------------------------------------------|\0---0---0---0---0---0---0---0---0---0---0---0---0---0---0---0---|\0---0---0---0---0---0---0---0---0---0---0---0---0---0---0---0---|\0---0---0---0---0---0---0---0---0---0---0---0---0---0---0---0---|
I hope this is right! ENJOY IT PLZ any problems email: skater-rocker@hotmail.co.uk :)
Please rate this tab:
x1.0