The Birthday Massacre - In The Dark tab

"In the Dark" by "The Birthday Massacre"
Played in Drop C, you can probably work it into Drop D easy.

INTRO/OUTRO

|-----------------------------------------------------||-----------------------------------------------------||-----------------------------------------------------||--4----2--5--2--4----2--5--2--4----2--5--2--4--5--2--||--4----2--5--2--4----2--5--2--4----2--5--2--4--5--2--||--4----2--5--2--4----2--5--2--4----2--5--2--4--5--2--|
|-----------------------------------------------------||-----------------------------------------------------||-----------------------------------------------------||--4----2--5--2--4----2--5--2--4----2--5--2--4--3--2--||--4----2--5--2--4----2--5--2--4----2--5--2--4--3--2--||--4----2--5--2--4----2--5--2--4----2--5--2--4--3--2--| x2
VERSES
(Mute these)|--------------------------------------------------------------------||--------------------------------------------------------------------||--------------------------------------------------------------------||--4--4--4--4-----4--4--4--4-----4--4--4--4-----4--4--4--4--7--5--3--||--4--4--4--4-----4--4--4--4-----4--4--4--4-----4--4--4--4--7--5--3--||--4--4--4--4-----4--4--4--4-----4--4--4--4-----4--4--4--4--7--5--3--|
|--------------------------------------------------------------------||--------------------------------------------------------------------||--------------------------------------------------------------------||--2--2--2--2-----2--2--2--2-----2--2--2--2-----2--2--2--2--7--3--5--||--2--2--2--2-----2--2--2--2-----2--2--2--2-----2--2--2--2--7--3--5--||--2--2--2--2-----2--2--2--2-----2--2--2--2-----2--2--2--2--7--3--5--|(Repeat as appropriate)
CHORUS
|---------------------------------------------------------------------||---------------------------------------------------------------------||---------------------------------------------------------------------||--4----------------7----------------2----------------2---------------||--4----------------7----------------2----------------2---------------||--4----------------7----------------2----------------2---------------|(Repeat as appropriate)
-Intro/Outro again -Verse again -Chorus (twice the amount as last time)
|-------------------------------------------------||-------------------------------------------------||-------------------------------------------------||-------------------------------------------------||-5-5-5-5-5-5-5-5-5-5-5-5-------------------------||-------------------------7-7-7-7-7-7-7-7-7-7-7-7-|
|-------------------------------------------------||-------------------------------------------------||-------------------------------------------------||-------------------------------------------------||-------------------------------------------------||-2-2-2-2-2-2-2-2-2-2-2-2-7-7-7-7-7-7-7-7-7-7-7-7-|
|-------------------------------------------------||-------------------------------------------------||-------------------------------------------------||-------------------------------------------------||-5-5-5-5-5-5-5-5-5-5-5-5-------------------------||-------------------------7-7-7-7-7-7-7-7-7-7-7-7-|
|-------------------------------------------------||-------------------------------------------------||-------------------------------------------------||-------------------------------------------------||-------------------------------------------------||-2-2-2-2-2-2-2-2-2-2-2-2-2-2-2-2-2-2-2-2-2-2-2-2-|
|-------------------------------------------------||-------------------------------------------------||-7-----------------------------------------------||-7-----------------------7-----------------------||-5-----------------------7-----------------------||-------------------------7-----------------------|
|-------------------------------------------------||-------------------------------------------------||-------------------------------------------------||-2-----------------------7-----------------------||-2-----------------------7-----------------------||-2-----------------------7-----------------------|
|-------------------------------------------------||-------------------------------------------------||-7-----------------------------------------------||-7-----------------------7-----------------------||-5-----------------------7-----------------------||-------------------------7-----------------------|
|-------------------------------------------------||-------------------------------------------------||-------------------------------------------------||-2-----------------------2-----------------------||-2-----------------------2-----------------------||-2-----------------------2-----------------------|
Guitar rest. you get a break for a bit. Then go back into: -Chorus -Intro/Outro Taa Daa
Tap to rate this tab
 
# A B C D E F G H I J K L M N O P Q R S T U V W X Y Z