The Black Box Revelation - Our Town Has Changed For Years Now tab version 2

##########################################
#Artist: The Black Box Revelation	 #
#Song: Our Town Has Changed For Years Now#
#Album: Silver Threats			 #
#Tab Credits: Bladerkeuh		 #
#Tuning: Eb A D G B E		         #
##########################################


Low E string tuned half a step down to Eb 
(like the string resonates on the 7th
fret with the open a-string in drop D, 
it now resonates on the 6th fret with the
a string played open).

Finger that is placed on the note:
1: index finger
2: middle finger
3: ring finger
4: little finger

d: downstroke
u: upstroke
P.M.: palm mute


Intro + verse
Try to let the strings ring as long as possible, therefore
I have put the fingers above, so you see that you'll be
holding a chord that you can hold to let the strings ring
longer.

2x 3 4 1 3 2 3 3 1 3 3 1|---------------------------------------------------||----------4-----2----------------------------------||--------------------3---------1--------------------||-/4--4-4----(4)---4---(4)-4-4---4-4-1--------------||---------------------------------------------------||---------------------------------------------------|
In this part, you'll have to be able to stretch your fingers a little bit. Also, it's important to keep playing in a certain rhythm with your thumb and other fingers, because some of the notes are what they call dead notes (they are played, you can't clearly here them, but if you don't play them, the riff sounds empty). I'll put those notes between brackets, and if you can play the riff well enough, you can play them too. Those notes accualy are just some bass-notes, so you always have to play a bass note, other note, bass note, ... in a strickt and even rhythm.
2x 2 3 1 3 1 3 4 3 1 3 1 3 4 3 1 1 3|---------------------------------------------------||------------------2--------------------------------||--------3---------3--------------------------------||----4---------6---------4---6-----4-4--------------||-/6---6---(6)---6---(6)---6---(6)-----6------------||---------------------------------------------------|
("our town has changed...") d d u d|---------------------------------------------------||--------------------------2--2-2-2-----------------||---------1-----3~---------3--3-3-3-----------------||----4----------------------------------------------||-/2---2----2------(2)-4-4--------------------------||---------------------------------------------------|
2x 2 3 1 3 1 3 4 3 1 3 1 3 4 3 1 1 3|---------------------------------------------------||------------------2--------------------------------||--------3---------3--------------------------------||----4---------6---------4---6-----4-4--------------||-/6---6---(6)---6---(6)---6---(6)-----6------------||---------------------------------------------------|
2x 3 4 1 3 2 3 3 1 3 3 1|---------------------------------------------------||----------4-----2----------------------------------||--------------------3---------1--------------------||-/4--4-4----(4)---4---(4)-4-4---4-4-1--------------||---------------------------------------------------||---------------------------------------------------|
2x 2 3 1 3 1 3 4 3 1 3 1 3 4 3 1 1 3|---------------------------------------------------||------------------2--------------------------------||--------3---------3--------------------------------||----4---------6---------4---6-----4-4--------------||-/6---6---(6)---6---(6)---6---(6)-----6------------||---------------------------------------------------|
2x 3 4 1 3 2 3 3 1 3 3 1|---------------------------------------------------||----------4-----2----------------------------------||--------------------3---------1--------------------||-/4--4-4----(4)---4---(4)-4-4---4-4-1--------------||---------------------------------------------------||---------------------------------------------------|
2x 2 3 1 3 1 3 4 3 1 3 1 3 4 3 1 1 3|---------------------------------------------------||------------------2--------------------------------||--------3---------3--------------------------------||----4---------6---------4---6-----4-4--------------||-/6---6---(6)---6---(6)---6---(6)-----6------------||---------------------------------------------------|
("our town has changed...") d d u d|---------------------------------------------------||--------------------------2--2-2-2-----------------||---------1-----3~---------3--3-3-3-----------------||----4----------------------------------------------||-/2---2----2------(2)-4-4--------------------------||---------------------------------------------------|
2 3 1 3 1 3 4 3 1 3 1 3 4 3 1 1 3|---------------------------------------------------||------------------2--------------------------------||--------3---------3--------------------------------||----4---------6---------4---6-----4-4--------------||-/6---6---(6)---6---(6)---6---(6)-----6------------||---------------------------------------------------|
("our town has changed...") d d u d|---------------------------------------------------||--------------------------2--2-2-2-----------------||---------1-----3~---------3--3-3-3-----------------||----4----------------------------------------------||-/2---2----2------(2)-4-4--------------------------||---------------------------------------------------|
Bridge
5x u d|-----------------------|----------------------------||-----------------------|----------------------------||------------------x-1~-|----------------------------||------------------x-1~-|----------------------------||------------------x-1~-|----------------------------||-0-0-0-0-0-0-0-0-------|-0-0-0-0-0-0-0-0-(0)--------|
2x 3 4 1 3 2 3 3 1 3 3 1|---------------------------------------------------||----------4-----2----------------------------------||--------------------3---------1--------------------||-/4--4-4----(4)---4---(4)-4-4---4-4-1--------------||---------------------------------------------------||---------------------------------------------------|
x2 2 3 1 3 1 3 4 3 1 3 1 3 4 3 1 1 3|---------------------------------------------------||------------------2--------------------------------||--------3---------3--------------------------------||----4---------6---------4---6-----4-4--------------||-/6---6---(6)---6---(6)---6---(6)-----6------------||---------------------------------------------------|
2x 3 4 1 3 2 3 3 1 3 3 1|---------------------------------------------------||----------4-----2----------------------------------||--------------------3---------1--------------------||-/4--4-4----(4)---4---(4)-4-4---4-4-1--------------||---------------------------------------------------||---------------------------------------------------|
x2 2 3 1 3 1 3 4 3 1 3 1 3 4 3 1 1 3|---------------------------------------------------||------------------2--------------------------------||--------3---------3--------------------------------||----4---------6---------4---6-----4-4--------------||-/6---6---(6)---6---(6)---6---(6)-----6------------||---------------------------------------------------|
Outro
3 4 1 3 2 P.M.------|---------------------------------------------------||----------4-----2-4-2-2-2-2-2----------------------||---------------------------------------------------||-/4--4-4----(4)------------------------------------||---------------------------------------------------||---------------------------------------------------|
Enjoy this great song! For questions or comments: Please rate if you have an Ultimate-Guitar account, that's feedback too :)
Tap to rate this tab
 
# A B C D E F G H I J K L M N O P Q R S T U V W X Y Z